Song name
# A B C D E F G H I J K L M N O P Q R S T U V W X Y Z

Who - Tommys Holiday Camp tab

[NOTE: Stage versions played whole step higher: F# (x8 10 10 10 x),
 G (x 10 12 12 12 x), C#7 (x4666x); OUTRO is same.]
[banjo and calliope/organ arranged for guitar]


  (B)                       x2
||--------------------------||------------------------|
||--------------4-----------||------------4-----------|
||.4/4-5-6---7-----7-6---5/.||-4-5-6---7-----7-6---5--|
||.------------------------.||------------------------|
||--------------------------||------------------------|
||--------------------------||------------------------|

Good morning, campers!

  E
 I'm your Uncle Ernie and I  welcome you to Tommy's Holiday
|----4------4-----4-------4|----4----4---4-----4--------4--|
|----5------5-----5-------5|----5----5---5-----5--------5--|
|----4----4-4-----4---4---4|----4----4---4-----4----4---4--|
|----6------------6--------|----6--------------6-----------|
|-7-------------7----------|-7--------------7--------------|
|--------------------------|-------------------------------|

  F
  Camp-ah!
|----5----5-----5-----5--|-5-----5-----5--------|
|----6----6-----6-----6--|----6-----6-----6-----|
|----5-5--5-----5--5--5--|-5--5--5--5--5--5-----|
|----7----------7-----7--|----7-----7-----7-----|
|-8----------8-----------|-------------------8--|
|------------------------|----------------------|

    B7
The camp with the difference,    never mind the weather
  |---11------11-------11---11-|---11-------11------11---11-|
  |---10------10-------10---10-|---10-------10------10---10-|
  |---11------11-------11---11-|---11-------11------11---11-|
  |-9----9--------9--------9---|-9-----9--------9-------9---|
  |----------------------------|----------------------------|
  |----------------------------|----------------------------|

  B7
  When you come to Tommy's, the holiday's forever!
|------11-------11----11---11-|---11------11-------|--|
|------10-------10----10---10-|---10------10-------|--|
|------11-------11----11---11-|---11------11-------|--|
|-9--------9-------9------9---|-9---9--------9-----|--|
|-----------------------------|--------------------|--|
|-----------------------------|--------------------|--|

   E                      x2
||------------------------||-----------------------|
||------------4-----------||------------4----------|
||.4-5-6---7-----7-6---5/.||-4-5-6---7-----7-6---5-|
||.----------------------.||-----------------------|
||------------------------||-----------------------|
||------------------------||-----------------------|
                           |[organ variation]      |
                           |-----------------------|
                           |------------4--5-6---7-|-10-
                           |-4-5-6---7-------------|
                           |-----------------------|
                           |-----------------------|
                           |-----------------------|

| F         | F       |

    B7
The camp with the difference, never mind the weather
When you come to Tommy's, the holiday's forever

   E                      x2                         D*
||------------------------||-----------------------|---5\4---|
||-----------4/4----------||------------4----------|--7------|
||.4-5-6---7-----7-6---5/.||-4-5-6---7-----7---5/0-|-7-------|
||.----------------------.||-----------------------|---------|
||------------------------||-----------------------|---------|
||------------------------||-----------------------|---------|
                                   [*slide A to Ab quickly to
                                    achieve banjo tonality]
[OUTRO; organ arr for guitar]
 (E)
                             Welcome....
|--0--0--0--0--|-0--0--0--0--0--|
|-10--9--7--5--|-0--0--0--0--0--|
|--------------|-7--6--4--2--1--|
|--------------|----------------|
|--------------|----------------|
|--------------|----------------|
Tap to rate this tab
# A B C D E F G H I J K L M N O P Q R S T U V W X Y Z