Song name
# A B C D E F G H I J K L M N O P Q R S T U V W X Y Z

Who - Good Lovin tab

Help us improve GuitareTab! Take a short survey!
GOOD LOVIN
perfomed by the who on "live at the BBC"
tabbed by dale pearson


CHORUS
|--------------------------|     Good lovin, etc
|--------------------------|
|--------------------------| X4
|--2-2---4-4---5-5---4-4---|
|--3-3---3-3---3-3---3-3---|
|--2-3---3-3---5-5---3-3---|



RIFF 1
|--------------------------|
|--------------------------|
|--------------------------| X2
|--2----4----5----4--5--4--|
|--3----3----5----3--5--3--|
|--2----3----5----3--5--3--|


VERSE 1
|--------------------------|     I feel it, sooo bad...
|--------------------------|
|--------------------------| X8
|--2-2---4-4---5-5---4-4---|
|--3-3---3-3---3-3---3-3---|
|--2-3---3-3---5-5---3-3---|


BRIDGE
|--------------------------|     Yeah yeah yeah...
|--------------------------|
|--------------------------| X2
|--2---4---2---4---2-------|
|--3---3---3---3---3-------|
|--2---3---2---3---2-------|


PRE-CHORUS

|--7-----------------------|     All i need....
|--9-----------------------|
|--9-----------------------| 
|--9-----------------------|
|--7-----------------------|
|--------------------------|

|--5-----------------------|     
|--5-----------------------|
|--6-----------------------| 
|--7-----------------------|
|--7-----------------------|
|--5-----------------------|

CHORUS
|--------------------------|     Good lovin, etc
|--------------------------|
|--------------------------| X4
|--2-2---4-4---5-5---4-4---|
|--3-3---3-3---3-3---3-3---|
|--2-3---3-3---5-5---3-3---|

RIFF 1
|--------------------------|
|--------------------------|
|--------------------------| X2
|--2----4----5----4--5--4--|
|--3----3----5----3--5--3--|
|--2----3----5----3--5--3--|


VERSE 1
|--------------------------|     come on baby, squeeze me tight...
|--------------------------|
|--------------------------| X8
|--2-2---4-4---5-5---4-4---|
|--3-3---3-3---3-3---3-3---|
|--2-3---3-3---5-5---3-3---|


BRIDGE
|--------------------------|     Yeah yeah yeah...
|--------------------------|
|--------------------------| X2
|--2---4---2---4---2-------|
|--3---3---3---3---3-------|
|--2---3---2---3---2-------|


PRE-CHORUS

PRE-CHORUS

|--7-----------------------|     All i need....
|--9-----------------------|
|--9-----------------------| 
|--9-----------------------|
|--7-----------------------|
|--------------------------|

|--5-----------------------|     
|--5-----------------------|
|--6-----------------------| 
|--7-----------------------|
|--7-----------------------|
|--5-----------------------|


CHORUS
|--------------------------|     Good lovin, etc
|--------------------------|
|--------------------------| X4
|--2-2---4-4---5-5---4-4---|
|--3-3---3-3---3-3---3-3---|
|--2-3---3-3---5-5---3-3---|

END
|------------------------------|
|------------------------------|
|------------------------------| X2
|--2----4----5----4--5--4--2---|
|--3----3----5----3--5--3--3---|
|--2----3----5----3--5--3--2---|
Related for Good Lovin tab