Song name
# A B C D E F G H I J K L M N O P Q R S T U V W X Y Z

Who - Tommy Can You Hear Me tab

Artist: The Who
Album: Tommy 1969
Song: Tommy Can You Hear Me?

after r's, strum 3 times quickly in up-down-up motion during verse only

Intro/Main Riff:
(Switches from A+D to G+C, G+C are only during verse)
  A  A D A  A A A A A A A
e-0r-0-2-0--0-0-0-0-0-0-0-|\
B-2r-2-3-2--2-2-2-2-2-2-2-| \
G-2r-2-2-2--2-2-2-2-2-2-2-|  \ x2
D-2r-2-0-2--2-2-2-2-2-2-2-|  /
A-0r-0---0--0-0-0-0-0-0-0-| /
E-------------------------|/

not played in intro:
  G  G C G  G G G G G G G
e-3r-3-0-3--3-3-3-3-3-3-3-|
B-0r-0-1-0--0-0-0-0-0-0-0-|
G-0r-0-0-0--0-0-0-0-0-0-0-|
D-0r-0-2-0--0-0-0-0-0-0-0-|
A-2r-2-3-2--2-2-2-2-2-2-2-|
E-3r-3-3-3--3-3-3-3-3-3-3-|


  A         A   D    A  A A A A A A A
  Tommy can you hear me
e-0r--------0---2----0--0-0-0-0-0-0-0-|
B-2r--------2---3----2--2-2-2-2-2-2-2-|
G-2r--------2---2----2--2-2-2-2-2-2-2-|
D-2r--------2---0----2--2-2-2-2-2-2-2-|
A-0r--------0--------0--0-0-0-0-0-0-0-|
E-------------------------------------|

  A            A   D    A  A A A A A A A
  Can you feel me near you
e-0r-----------0---2----0--0-0-0-0-0-0-0-|
B-2r-----------2---3----2--2-2-2-2-2-2-2-|
G-2r-----------2---2----2--2-2-2-2-2-2-2-|
D-2r-----------2---0----2--2-2-2-2-2-2-2-|
A-0r-----------0--------0--0-0-0-0-0-0-0-|
E----------------------------------------|

  G         G   C   G  G G G G G G G
  Tommy can you see me
e-3r--------3---0---3--3-3-3-3-3-3-3-|
B-0r--------0---1---0--0-0-0-0-0-0-0-|
G-0r--------0---0---0--0-0-0-0-0-0-0-|
D-0r--------0---2---0--0-0-0-0-0-0-0-|
A-2r--------2---3---2--2-2-2-2-2-2-2-|
E-3r--------3---3---3--3-3-3-3-3-3-3-|

  G          G   C    G   G G G G G G G
  Can I help to cheer you
e-3r---------3---0----3---3-3-3-3-3-3-3-|
B-0r---------0---1----0---0-0-0-0-0-0-0-|
G-0r---------0---0----0---0-0-0-0-0-0-0-|
D-0r---------0---2----0---0-0-0-0-0-0-0-|
A-2r---------2---3----2---2-2-2-2-2-2-2-|
E-3r---------3---3----3---3-3-3-3-3-3-3-|


down-up G chord strum:

Oh Tommy Tommy Tommy Tommy

Then repeat all except intro and "Tommy" is repeated and fades out.


By Rhett Guenthner
Tap to rate this tab
# A B C D E F G H I J K L M N O P Q R S T U V W X Y Z