Song name
# A B C D E F G H I J K L M N O P Q R S T U V W X Y Z

Who - Heaven & Hell tab

m: Litgo 
Date: Fri, 27 Mar 1998 14:22:22 EST
Subject: TAB: Heaven_and_hell   BY: Who

Heaven and Hell
by The Who, 1970
written by John Entwistle

==============
transcribed by
litgo@aol.com
==============

Note: leads are approximate!!

G       355433 and 3Tx0033 and 355xxx (G5)
Eb     (6)6888x
C       33555x and x32013
F       133211 and 1Tx3211 and 133xxx (F5)
Fadd9   133213
Db     (4)4666x
D       x00232
Dsus4x (0)0233
Bb     (1)1333x
B      (2)244xx

                         x2
||: G   |Eb   |C   |G   :||


|G5/G5/|F5/F5/|/G5/G5|\F5/F5/|

   G5         F5       G5              F5           G            G
On top of the sky is a place where you go if you've done nothing wrong

          Fadd9       (Eb) D   Dsus4 D
If you've done nothing wrong

    G                       Fadd9              
And down in the ground is a place where you go 
          Bb           Bb B C
if you've been a bad boy

          Bb           Bb B C
If you've been a bad boy

[chorus]
             G5           Fadd9    Db           F5
Why can't we have eternal life and never die?

Db         F5
Never die?

| F5 F5->G5 G5 G5->F5 |

In the place up above you grow feather wings and you 
flap round and round
With a harp singing hyms
And down in the ground you grow horns and a tail and you carry a fork
And moan and wail

[repeat chorus]

| F5 F5->G5 G5 G5->F5 |

  G              Eb           C                 G             
|--------------|------------|-----------------|-----------3-----|
|--------------|------------|-----------------|------3--6---3-6/|
|--------------|------------|3--3---3---3---0-|---3-------------|
|---------3-5-3|-5-----5-5--|-5---5---5---5---|-5---------------|
|---1/3/5------|------------|-----------------|-----------------|
|-3------------|------------|-----------------|-----------------|

  G                Eb            C                     
|----------------|-------------|-10/6-10/6-10/6--6----|
|-8---6/8-6/8--6/|8---6/8--8-8-|-----8----8----8--8-6-|
|----------------|-------------|----------------------|
|----------------|-------------|----------------------|
|----------------|-------------|----------------------|
|----------------|-------------|----------------------|

  G   G              Eb         C                           
|--------------|-3------------|----------|-----------------|
|-8------3-3-6-|---6/3/0-6--6^|-6^-----6/|-8-6/8-6/8-6/8-6/|
|---3-0--------|--------------|----------|-----------------|
|--------------|--------------|----------|-----------------|
|--------------|--------------|----------|-----------------|
|--------------|--------------|----------|-----------------|

  G                 G           Eb        
|-----------------|-----------|--------------|
|-8---------------|-----------|--------------|
|---7/5/0------3^-|-------3-5-|-5^-----(5^)\3|
|---------5/3/5---|-5---------|--------------|
|-----------------|-----------|--------------|
|-----------------|-----------|--------------|

  C                   G                      G    
|-------------------|---------------------|------------------|
|-------------------|---------------------|------------------|
|-------------------|---------------------|------------------|
|-5-5-5-5-5-5-5-5---|---------------------|------------------|
|-------------------|-3-1-----------------|------------------|
|-------------------|-----3-1-3-----------|-3-3-3-3-3-3-3-3--|

  Eb                C                     G  
|-----------------|---------------------|-------------------|
|-----------------|---------------------|-------------------|
|-----------------|---------------------|-------------------|
|-----------------|-3------------------3|-5/3/5-5/3/5-5-5-5-|
|------------5/3/5|---5/3/5-5/3/5-5/3/5-|-------------------|
|-3-3-3-3-3-3-----|---------------------|-------------------|

  G                   Eb                    C              
|------------------|------------------|-----------------3-|
|------------------|------------------|-------------------|
|-3/0-3/0-3/0-3/0--|-3/0-3/0-3/0-3/0--|-3/0-3/0-3--5^-----|
|----5---5---5---5-|----5---5---5---5-|----5---5--5-------|
|------------------|------------------|-------------------|
|------------------|------------------|-------------------|

  G                   G                  Eb           
|-3-----------------|------------------|-------------|
|---6/6/6-3/3/3-----|-------3------3---|-3---3--3----|
|--------------0/3^0|-3^-0--3---3--3---|-3---3--3----|
|-------------------|---------5---5--5-|---5---5--5--|
|-------------------|------------------|-------------|
|-------------------|------------------|-------------|

  C             G                     G                       
|-------3-----|---------------------|------------------------|
|---------6-3-|-6^----6-8-8/8/8-6-8-|-6----12---12---12---12-|
|--3-5^-------|---------------------|------------------------|
|-5-----------|---------------------|---0/12-0/12-0/12-0/12--|
|-------------|---------------------|------------------------|
|-------------|---------------------|------------------------|

  Eb                 C                    G            
|------------------|--------------------|-------------|
|----8---8---8---8-|----5---5---5---5-5/|-3---------3-|
|------------------|--------------------|-----------3-|
|-0/8-0/8-0/8-0/8--|-0/5-0/5-0/5-0/5--5-|-------------|
|------------------|--------------------|-------------|
|------------------|--------------------|----3-3-3----|

  G               Eb                    C                    
|---------------|---------------------|---------------------|
|---------------|---------------------|---------------------|
|-------3-------|-8-------------------|-5-----------------5-|
|-5---5---5-5---|-8----6-6-6----------|-5-----------------5-|
|-------------6-|-6--6-6-6-6----------|-3-----------------3-|
|---------------|-6-------------------|---------------------|

  G                     G          Fadd9    x3 G        Fadd9
|-------------------||--3----------3--3--3--||-3----------3--|
|-------------------||--3----------1--1--1--||-3----------1--|
|-------------------||.-4----------2--2--2-.||-4----------2--|
|-5-----------------||.-5----------3--3--3-.||-5----------3--|
|-5-----------------||----------------------||---------------|
|-3-----------------||--3T---------1T-1T-1T-||-3T---------1T-|


[repeat first verse and chorus]

[outro]

Db  Bb   F

=============
litgo@aol.com
Tap to rate this tab
 
# A B C D E F G H I J K L M N O P Q R S T U V W X Y Z