Guitaretab - guitar tabs
Song name
# A B C D E F G H I J K L M N O P Q R S T U V W X Y Z

Who - I Can See For Miles tab

-------------------------------------------------------------------------------
			     I Can See For Miles - The Who
-------------------------------------------------------------------------------
Tabbed by: TVs Uncle Jerry
Email: lexortheo@yahoo.com
[ Tab from: http://www.guitaretab.com/w/who/20775.html ]
Tuning:
                             (Repeat Until Chorus)
e|-----------------------------------0---------------3---5---------------------|
B|-----------------------------------0---------------3---5---------------------|
G|-----------------------------------1---------------0---2---------------------|
D|---2-------------------------------2---------------0---2---------------------|
A|---2-------------------------------2---------------x---0---------------------|
E|---0-0-0-0-0-0-0-0-0-0-0-0-0-0-0-0-0-0-0-0-0-0-0-0-3-------------------------|

| /  slide up
| \  slide down
| h  hammer-on
| p  pull-off
| ~  vibrato
| +  harmonic
| x  Mute note
===============================================================================
Related for I Can See For Miles tab
Advertisement will be closed in 10 seconds