Song name
# A B C D E F G H I J K L M N O P Q R S T U V W X Y Z

Who - Im Free tab

Help us improve GuitareTab! Take a short survey!
e--------------------------------------------------|
b--------------------------------------------------|
g--------------------------------------------------|
d--------------------------------------------------|
a-2-2-5-5-7-7-7-|-4-4-7-7-9-9-9--------------------| REPEAT MANY
E-0-0-3-3-5-5-5-|-2-2-5-5-7-7-7--------------------| TIMES
                                                   "I'm Free" 's

and freedom...... tastes..... of reality    \ those lines go with same chords
and im waiting... for you.... to follow me  /
-3----------------0-----------2---------|
-0----------------2-----------3---------|
-0----------------2-----------2---------|
-0----------------2-----------0---------|
-2----------------0-----------x---------|
-3----------------0-----------x---------|
 G                A           D

the following tabs match the following lyrics. order sung/ played = 1,2,3,4

(1)if i told you what it takes to reach the highest high
(3)you've been told many times before, messiahs pointed to the door
   -1---------------------------1-------|
   -2---------------------------2-------|
   -3---------------------------3-------|
   -0---------------------------0-------|
   -x---------------------------x-------|
   -x---------------------------x-------|
    B                           B

(2)you'd laugh and say nothing's that simple
(4)no one had the guts to leave the temple
   -3----------------0------------------2-|
   -0----------------2------------------3-|
   -0----------------2------------------2-|
   -0----------------2------------------0-|
   -2----------------0------------------x-|
   -3----------------0------------------x-|
    G                A                  D

figure out the solo on your own.

finisher is tab for verse in pinball wizard.

|----------------------------|-------------------------|
|---7-7-7-7-7-7-7-7-7-7------|-7-7-7-7-7-7-7-7-7-7-7---|
|-9-9-9-9-9-9-9-9-9-9-9------|-8-8-8-8-8-8-8-8-8-8-8---|
|-9-9-9-9-9-9-9-9-9-9-9------|-9-9-9-9-9-9-9-9-9-9-9---|
|----------------------------|-------------------------|
|-7-7-7-7-7-7-7-7-7-7-7------|-7-7-7-7-7-7-7-7-7-7-7---|
|Electric                    |                         |
|----------------------------|-------------------------|
|----------------------------|-------------------------|
|----------------------------|-------------------------|
|-7/9------------------------|-------------------------|
|----------------------------|-------------------------|
|-5/7------------------------|-------------------------|

  Asus4                       A
  e s s e s e s e e s s       e s s e s e s e e s s
|---------------------------|-------------------------|
|-5-5-5-5-5-5-5-5-5-5-5-----|-5-5-5-5-5-5-5-5-5-5-5---|
|-7-7-7-7-7-7-7-7-7-7-7-----|-6-6-6-6-6-6-6-6-6-6-6---|
|-7-7-7-7-7-7-7-7-7-7-7-----|-7-7-7-7-7-7-7-7-7-7-7---|
|---------------------------|-------------------------|
|T5-5-5-5-5-5-5-5-5-5-5-----|-5-5-5-5-5-5-5-5-5-5-5---|
|Electric                   |                         |
|---------------------------|-------------------------|
|---------------------------|-------------------------|
|---------------------------|-------------------------|
|-5/7-----------------------|-------------------------|
|---------------------------|-------------------------|
|-3/5-----------------------|-------------------------|


  Gsus4                             G
  e s s e s e s e e s s             e s s e s e s e e s s
|---------------------------------|-----------------------|
|-3-3-3-3-3-3-3-3-3-3-3-----------|-3-3-3-3-3-3-3-3-3-3-3-|
|-5-5-5-5-5-5-5-5-5-5-5-----------|-4-4-4-4-4-4-4-4-4-4-4-|
|-5-5-5-5-5-5-5-5-5-5-5-----------|-5-5-5-5-5-5-5-5-5-5-5-|
|---------------------------------|-----------------------|
|T3-3-3-3-3-3-3-3-3-3-3-----------|-3-3-3-3-3-3-3-3-3-3-3-|
|Electric                         |                       |
|---------------------------------|-----------------------|
|---------------------------------|-----------------------|
|---------------------------------|-----------------------|
|-3/5-----------------------------|-----------------------|
|---------------------------------|-----------------------|
|-1/3-----------------------------|-----------------------|


  F#sus4                         F#
  e s s e s e s e e s s          w
|------------------------------|-----------------------|
|-2-2-2-2-2-2-2-2-2-2-2--------|-2---------------------|
|-4-4-4-4-4-4-4-4-4-4-4--------|-3---------------------|
|-4-4-4-4-4-4-4-4-4-4-4--------|-4---------------------|
|------------------------------|-----------------------|
|T2-2-2-2-2-2-2-2-2-2-2--------|-2---------------------|
|Electric                      | w                     |
Related for Im Free tab