Guitaretab - guitar tabs
Song name
# A B C D E F G H I J K L M N O P Q R S T U V W X Y Z

Who - Love Reign Oer Me tab

Love Reign O'er Me
The Who
Quadrophenia
Tabbed By JJmig
Sfichtner@trevornet.org

The strumming for the whole song is ( Tic - Tic a Tic)

Capo on 2

Verses

Only Love...
-4--4-4-4---4--4-4-4---4--4-4-4---4--4-4-4-----------------------------|
-2--2-2-2---2--2-2-2---2--2-2-2---2--2-2-2-----------------------------|
-1--1-1-1---1--1-1-1---1--1-1-1---1--1-1-1-----------------------------|
-----------------------------------------------------------------------|
-----------------------------------------------------------------------|
-----------------------------------------------------------------------|

The Way the Beach
--4--4-4-4---4--4-4-4---4--4-4-4---4--4-4-4--------------------------|
--2--2-2-2---2--2-2-2---2--2-2-2---2--2-2-2--------------------------|
--0--0-0-0---0--0-0-0---0--0-0-0---0--0-0-0--------------------------|
--0--0-0-0---0--0-0-0---0--0-0-0---0--0-0-0--------------------------|
--3--3-3-3---3--3-3-3---3--3-3-3---3--3-3-3--------------------------|
---------------------------------------------------------------------|


Love!!!!!
-1-1-1--0-0-0--3-3-3--1-1-1--3-3-3--1-1-1----------------------------|
-3-3-3--3-3-3--3-3-3--3-3-3--3-3-3--3-3-3----------------------------|
-2-2-2--2-2-2--2-2-2--2-2-2--2-2-2--2-2-2----------------------------|
---------------------------------------------------------------------|
---------------------------------------------------------------------|
---------------------------------------------------------------------|

Reign O'er Me
[ Tab from: http://www.guitaretab.com/w/who/20791.html ]
-0-0-0---1-1-1--1-1-1-1-1-1--0-0-0--3-3-3-3-3-3-3-3-3-3-3-3-----------|
-3-3-3---3-3-3--3-3-3-3-3-3--3-3-3--3-3-3-3-3-3-3-3-3-3-3-3-----------|
-2-2-2---2-2-2--3-3-3-3-3-3--3-3-3--3-3-3-3-3-3-3-3-3-3-3-3-----------|
----------------------------------------------------------------------|
----------------------------------------------------------------------|
----------------------------------------------------------------------|

After Chorus
----------------------------------------------------------------------|
-2-2-2-2--3-3-3-3--2--2-2-2---2--2-2-2------------------------------|
-2--2-2-2--2--2-2-2--2--2-2-2---2--2-2-2------------------------------|
-2--2-2-2--2--2-2-2--2--2-2-2---2--2-2-2------------------------------|
----------------------------------------------------------------------|
----------------------------------------------------------------------|

Next Verse
-1-1-1-1--1--1-1-1--1-1-1-1-1-1-1-1-1-1-1-1-1-1-1-1----------|
-1--1-1-1--1--1-1-1--1--1-1-1--1--1-1-1--1--1-1-1--1--1-1-1----------|
-2--2-2-2--3--3-3-3--2--2-2-2--3--3-3-3--2--2-2-2--3--3-3-3----------|
-3-3-3-3--3--3-3-3--3-3-3-3--3--3-3-3--3--3-3-3--3--3-3-3----------|
-3--3-3-3--3--3-3-3--3--3-3-3--3--3-3-3--3--3-3-3--3--3-3-3----------|
-1--1-1-1--1--3-3-3--1--1-1-1--1--1-1-1--1--1-1-1--1--1-1-1----------|

Then it goes higher
-2--2-2-2--2--2-2-2--3--3-3-3--3--3-3-3--5--5-5-5--5--5-5-5--3--3-3-3-|
-3--3-3-3--3--3-3-3--3--3-3-3--3--3-3-3--5--5-5-5--5--5-5-5--3--3-3-3-|
-2--2-2-2--2--2-2-2--4--4-4-4--4--4-4-4--6--6-6-6--6--6-6-6--4--4-4-4-|
----------------------------------------------------------------------|
----------------------------------------------------------------------|
----------------------------------------------------------------------|

-3--3-3-3------------------------------------------------------------|
-3--3-3-3------------------------------------------------------------|
-4--4-4-4------------------------------------------------------------|
---------------------------------------------------------------------|
---------------------------------------------------------------------|
---------------------------------------------------------------------|

That's all you need to know, great song
Related for Love Reign Oer Me tab