Song name
# A B C D E F G H I J K L M N O P Q R S T U V W X Y Z

Who - My Generation tab

#

#----------------------------------PLEASE NOTE---------------------------------#
#This file is the author's own work and represents their interpretation of the #
#song. You may only use this file for private study, scholarship, or research. #
#------------------------------------------------------------------------------#

Date: Thu, 12 Dec 1996 18:31:01 -0800
From: Derrick 
Subject: Guitar tabs


	                           My Generation
	Artist = The Who
	Album = I don^?t know the original album but is on the greatest hits
album.
	
	These are the riffs for ^?My Generation^?.

|------------------------------|-----------------------------|---------------------------------------|
|------------------------------|-----------------------------|---------------------------------------|
|------------------------------|-----------------------------|---------------------------------------|
|------------------------------|-----------------------------|---------------------------------------|
|------------------------------|-----------------------------|---------------------------------------|
|---3--3--3--3--1--1--1--1-|-3--3--3--3--1--1--1--1-|-3-3-3-3-1-3-3-3-1-1-1-1-3-3-3-| 

Repeat 4 times

	When Roger sings ^?My Generation^? you use the same notes as the riffs in
the verse.  If you listen to the song you will know when to use it.

|------------------------------|----------------------------|
|------------------------------|----------------------------|
|------------------------------|----------------------------|
|------------------------------|----------------------------|
|---0--0--0--0---------------|-0--0--0--0---------------|
|-----------------3--3--3--3-|---------------3--3--3--3-|

|-----------------------------|----------------------------|
|-----------------------------|----------------------------|
|-----------------------------|----------------------------|
|-----------------------------|----------------------------|
|--1--1--1--1---------------|-1--1--1--1---------------|
|----------------4--4--4--4-|---------------4--4--4--4-|

	I don^?t know the exact chords for the ending but you should be able to
figure it out.  If you have any questions of comments e-mail me at 

	terryjm@fox.nstn.ca
Tap to rate this tab
 
# A B C D E F G H I J K L M N O P Q R S T U V W X Y Z