Song name
# A B C D E F G H I J K L M N O P Q R S T U V W X Y Z

Who - Baba Oriley Acoustic tab

I'd recomend listening to the song it'll help with the repeditive parts.


Capo 1st Fret 
or move everything up one fret

Syth. Riff:
E|-----------------------|
B|----------5-5----------|
G|------4-4------4-4-----|
D|--2-2--------------2-2-|
A|-----------------------|
E|-----------------------|

Syth. + Guitar:
      E                       Bm  A7
E|-----------------------------------------------------------------|
B|----5--------5-5------------5---5--------5-5-------------5-5-----|
G|----4----4-4-----4-4--------4---4----4-4-----4-4-----4-4-----4-4-|(repeat
D|----2----------------2-2----4---2----------------2-2-------------| alot) 
A|----2-----------------------2---0--------------------------------|
E|--------------------------------0--------------------------------|

Verse 1:  (same as above)
Out here in the fields...


Then...

    Bm
E|------------------------------------|
B|--5--------5-5-------------5-5------|
G|--4----4-4-----4-4-----4-4-----4-4--|(x4)
D|--4----------------4-4--------------|
A|--2---------------------------------|
E|------------------------------------|

E|-----------------------|
B|----------5-5----------|
G|------4-4------4-4-----|(repeat alot)
D|--2-2--------------2-2-|
A|-----------------------|
E|-----------------------|
  Don't Cry...

Verse II:
      E                       Bm  A7
E|-----------------------------------------------------------------|
B|----5--------5-5------------5---5--------5-5-------------5-5-----|
G|----4----4-4-----4-4--------4---4----4-4-----4-4-----4-4-----4-4-|(repeat
D|----2----------------2-2----4---2----------------2-2-------------| alot) 
A|----2-----------------------2---0--------------------------------|
E|--------------------------------0--------------------------------|
  Sally, Take my hand...

Solo:
E|-13-----13-----------------------13-15-13-15b17-13-13-------|
B|------------13--13h15--15-15--------------------------15-13-|
G|------------------------------------------------------------|
D|------------------------------------------------------------|
A|------------------------------------------------------------|
E|------------------------------------------------------------|

|-------------------------------------------------------------|
|-15-13-15-13-------------------------------------------------|
|----------------15b17-15b17-15b17-15b17-15b17-15b17-15b17-14-|
|-------------------------------------------------------------|
|-------------------------------------------------------------|
|-------------------------------------------------------------|

|----------------------------------|
|----------------------------------|
|-15b17--17--17--17--15-14---------|
|----------------------------------|
|----------------------------------|
|----------------------------------|

Verse III:

    E                       Bm  A7
E|-----------------------------------------------------------------|
B|----5--------5-5------------5---5--------5-5-------------5-5-----|
G|----4----4-4-----4-4--------4---4----4-4-----4-4-----4-4-----4-4-|(repeat
D|----2----------------2-2----4---2----------------2-2-------------| alot) 
A|----2-----------------------2---0--------------------------------|
E|--------------------------------0--------------------------------|
  Teenage wasteland...


Then... 
             Bm     Bm     A7     A7
E|-------------------------------------|
B|-------------------------x------x----|
G|-----------4------4------2------2----|(Repeat)
D|-----------4------4------2------2----|
A|-----------2------2------------------|
E|-------------------------------------|
  There all Wasted!

Guitar Solo II:
E|-12--13--15--12--13--15--12-13-15----12--13--15--12--13--15--12-13-15--|
B|-----------------------------------------------------------------------|
G|-----------------------------------------------------------------------|
D|-----------------------------------------------------------------------|
A|-----------------------------------------------------------------------|
E|-----------------------------------------------------------------------|

|-12--13--15--12--13--15--12-13-15----11--13--15--11--13--15--11-13-15--|
|-----------------------------------------------------------------------|
|-----------------------------------------------------------------------|
|-----------------------------------------------------------------------|
|-----------------------------------------------------------------------|
|-----------------------------------------------------------------------|

|-12-13-12-13-12-13-12-13-12-13-12-13-12-13-12----|
|----------------------------------------------13-|
|-------------------------------------------------|
|-------------------------------------------------|
|-------------------------------------------------|
|-------------------------------------------------|

|-12-13-12-13-12-13-12-13-12-13-12-13-15-12-13-13-|
|-------------------------------------------------|
|-------------------------------------------------|
|-------------------------------------------------|
|-------------------------------------------------|
|-------------------------------------------------|

|-15-13-15-13-15-13-15-13-15-13-15-13-15-13-|
|-------------------------------------------|
|-------------------------------------------|
|-------------------------------------------|
|-------------------------------------------|
|-------------------------------------------|

|-11-13-11-13-11-13-11-13-11-13-11-13-11-13-11-13-|
|-------------------------------------------------|
|-------------------------------------------------|
|-------------------------------------------------|
|-------------------------------------------------|
|-------------------------------------------------|

|-11\10-------------------------------------------------------------|
|-------13------11b13-11b13-11b13---13-13-13-13-13-13-13-13-15-11\--|
|-------------------------------------------------------------------|
|-------------------------------------------------------------------|
|-------------------------------------------------------------------|
|-------------------------------------------------------------------|


You could end the song here or if you have a Bm harmonica or a violin you could do the last part.

Violin/Harmonica Solo:
Tap to rate this tab
 
# A B C D E F G H I J K L M N O P Q R S T U V W X Y Z