Song name
# A B C D E F G H I J K L M N O P Q R S T U V W X Y Z

Who - God Speaks To Marty Robbins tab

God Speaks of Marty Robbins
The Who
standard tuning
tabbed by: tntrekabulator@hotmail.com

?-means not 100%
^-hammer on
	 			 ?
|-------------------2------5--3--2-----|
|-------------------3------7--3--3-----|
|---------2--0------2------7--2--2-----|
|--0^4----------4-------0--------------|
|--------------------------------------|
|--------------------------------------|

|---------------------------------|
|---------------------------------|
|---------2--0-----0--2-----------|
|--0^4---------4---------2--------|
|---------------------0--0--------|
|---------------------------------|

?__________________________________________________________?
|-----------------------------0-----------------|
|--3----------------------------3---------------|
|------0--------------0------------0------------|
|----------2------2------2------------2-----2---|
|--------------0---------------------------0----|
|-----------------------------------------------|

?_________________________________________________________?
|--0------------------------------------------|
|----3------------------------3---------------|
|--------0-------------0---------0------------|
|------------2-----2------2---------2-----2---|
|---------------0------------------------0----|
|---------------------------------------------|

|----------------5--3--2----------------|
|----------------7--3--3----------------|
|----------------7--2--2----------------|
|--2^4--0-------------------------------|
|---------------------------------------|
|---------------------------------------|
Tap to rate this tab
# A B C D E F G H I J K L M N O P Q R S T U V W X Y Z