Song name
# A B C D E F G H I J K L M N O P Q R S T U V W X Y Z

Who - Going Mobile chords

Highlighted       Show chord diagrams
Going Mobile: The Who - Capo 7  (Try CAPO 5: Easier to Sing)

E---------------------------------------------------------<-1---------|st Half of
B---------------------------------------------------------------------|Intro as
G--2---2-2--------2--2-2---------2--------2--2-2----------Well as 1st-|
D--2---2-2--------2--2-2---------2--------2--2-2----------------------|Half of
A--0---0-0--0--0--0--0-0--0--0---0--0--0--0--0-0--0--0----------------|Each Verse &
E-----------0--2----------0--2------0--2----------0--2----------------|During Solo
   A5       Esus4            F#m
E---0--0--0--0--0--0--0--0--0--0---------------|
B---3--3--2--0--2--0--3--3--2--0---------------|
G---2--2--2--2--2--2--2--2--2--2---------------| This Section Is Played Only
D---0--0--0--0--0--0--0--0--0--0---------------|   At 2nd Half Of Intro
A-------------------------------------0--------|
E---------------------------------0-2----------|

E-------------3--2----|
B-------------3--2----|-Add This At End Of Very Rhythmic
G--2-2-2-2-2--0-(0)---|  End Of Solo Section. Mix It Up.
D--2-2-2-2-2----------|
A--0-0-0-0-0----------|
E---------------------|
   Dsus2  DM7sus2  D6sus2
E---0--0--0--0--0--0--0--0--0--0--0-------------|
B---3--3--2--0--2--0--3--2--0--0--0-------------|-Played over
G---2--2--2--2--2--2--0--0--0--0--0-------------| I’m Going->MOBILE
D---0--0--0--0--0--0--2--2--2--2--2-------------|
A---------------------0--0--0--0--0-------------| Which is the 2nd Half of
E-----------------------------------------------| Each Verse
 Dsus2  DM7sus2  D6sus2  A7sus4  A7  A7sus2

                                                                                     
A5 Esus4 F#m  A5 Esus4 F#m   
A5 Esus4 F#m A5 Esus4 F#m
I'm goin home and when I want to go home
         Dsus2  DM7sus2  D6sus2  A7sus4  A7  A7sus2
I'm goin mobile

                      A5  Esus4  F#m
Well I'm gonna find a home
                                 Dsus2  DM7sus2  D6sus2  A7sus4  A7  A7sus2
on wheels See how it feels  goin mobile.
          A5  Esus4  F#m
Keep  me  movin

      A5  Esus4  F#m
I can pull up by the curb I can make it
                  Dsus2  DM7sus2  D6sus2  A7sus4  A7  A7sus2
On the road goin' mobile
      A5  Esus4  F#m
I can stop in any street invitin' people
                      Dsus2  DM7sus2  D6sus2  A7sus4  A7  A7sus2
That we meet    goin' mobile
        A5  Esus4  F#m
Keep me movin'


C          G        Am          G
Out in the woods or in the city
             F          Fmaj7
It's all the same to me
         G                C              G
When I'm drivin' free the world's my home
         A5  Esus4  F#m
When I'm mobile

A5  Esus4  F#m
Play the tape machine make the toast and tea
         Dsus2  DM7sus2  D6sus2  A7sus4  A7  A7sus2
When I'm mobile
           A5  Esus4  F#m
Well I can lay in bed with only highway ahead
         Dsus2  DM7sus2  D6sus2  A7sus4  A7  A7sus2
When I'm mobile
        A5  Esus4  F#m
Keep me movin'              Keep me movin;
     A5  Esus4  F#m
Over 50  keep me groovin'
A5  Esus4  F#m
Just a hippie gypsy  Come on move now.  Movin Keep me movin yeah.
Keep me movin, groovin, movin yeah.  Movin yeah  mobile, mobile,
mobile, mobile, mobile , mobile , mobile
C       G
I don't care about pollution
Am     G
I'm an air-conditioned gypsy
F        Fmaj7
That's my solution
G
Watch the police and the taxman miss me
    A5  Esus4  F#m   A5  Esus4  F#m
 A5  Esus4  F#m  A5  Esus4  F#m
I'm mobile…wooooo yeeeeah  heeee mobile mobile mobile

Em    G     Em
A5  Esus4  F#m    A5  Esus4  F#m     A5

END

NOTE: The first A5 in the first verse is supposed to go over HOME.
Can't get the Referenced chords to move left for some reason (Just on that line).
The A5  Esus4  F#m refers to that chord pattern being played through the Intro,
The Beginning of the Verses and in the Solo Section
Rather than just the 3 chords.
Same with Dsus2  DM7sus2  D6sus2  A7sus4  A7  A7sus2.
It refers to that pattern being played as referenced in the TAB section
At the top of that Chart Page.

Chart By: James "Seaside Jimmy" DiLorenzo
www.SeasideJimmy.com
www.JimmyDiLorenzo.com
SeasideJimmy@yahoo.com
June 3, 2012
Tap to rate this tab
 
# A B C D E F G H I J K L M N O P Q R S T U V W X Y Z