Song name
# A B C D E F G H I J K L M N O P Q R S T U V W X Y Z

Who - The Dirty Jobs tab

The Dirty Jobs - The Who


Capo 3


[intro]

||:A    E/A      |Dadd9/A E/A :||
[horn arranged for guitar]
||-5-------------|-------------||
||---------------|5------------||
||.-----2-4-6-7--|------------.||
||.--------------|------------.||
||---------------|-------------||
||---------------|-------------||

[verse]
|A A      E/A     E/A  |Dadd9/A   E/A  E/A|
   I am a man who looks after the pigs
|A      A    E/A  E/A  |Dadd9/A  E/A  E/A |
   Usually I get along okay
|A A      E/A E/A  |Dadd9/A      E/A  E/A |
   I am a man who reveals all he digs
|A        A       E/A    E/A     |Dadd9/A Dadd9/A E/A E/A
   Should be more careful, what I say

[chorus]
           |A   D    G/D  G/D D           |A      D     G/D  G/D D |
I'm getting put down             I'm getting pushed 'round

|Bm Bm        A      A    |G5 Gmaj7 G6 Gmaj7 G5 |
    I'm being beaten every day
                          |3-3-2-2----0--0-2-0--3-3--|
                          |3-3-3-3----3--3-3-3--3-3--|
                          |0-0-0-0----0--0-0-0--0-0--|
                          |0-0-0-0----0--0-0-0--0-0--|
                          |--------------------------|
                          |--------------------------|

         |A D    G/D G/D D                      |A    D    G/D G/D D |
My life's fading              but things are changing

|Bm Bm            A       A  ||:G5 Gmaj7 G6 Gmaj7 G5 :||2
    I'm not gonna sit and weep again
                             ||-3-3-2-2----0--0-2-0--3-3---||
                             ||-3-3-3-3----3--3-3-3--3-3---||
                             ||-0-0-0-0----0--0-0-0--0-0--.||
                             ||-0-0-0-0----0--0-0-0--0-0--.||
                             ||----------------------------||
                             ||----------------------------||

[repeat verse]
I am a man who drives a local bus
I take miners to work but the pit's all closed today
It's easy to see that you are one of us
Ain't it funny how we all seem to look the same

[repeat chorus]
I'm getting put down
I'm getting pushed 'round
I'm being beaten every day
My life's fading but things are changing
I'm not gonna sit and weep again

[bridge]
|D         D      D     D|G  G           D        D   |
        My Karma tells me    you've been screwed again
|------------------------|----------------------------|
|-7/8-8---8/7--/10------|12/13-13-13/12-15-----------|
|-7/9-9---9/7--/9-------|12/14-14-14/12-14-----------|
|------------------------|----------------------------|
|------------------------|----------------------------|
|------------------------|----------------------------|

|Em        Em       D        D        |C       C       G    G  |
    If you let them do it to ya you've got yourself to blame
|-------------------------------------|11--10--8----10-7---3----|
|12/15-15--15/12----10---------------|12--10--8----10-8---3----|
|12/14-14--14/12----11---------------|-------------------------|
|-------------------------------------|-------------------------|
|-------------------------------------|-------------------------|
|-------------------------------------|-------------------------|

|G      G           G       G        |
               It's you who feels the 
|7--3-7--3-7--3-----7-------3--------|
|8--3-8--3-8--3-----8-------3--------|
|------------------------------------|
|------------------------------------|
|------------------------------------|
|------------------------------------|

|D     D              D       D        |A    [repeat intro]
 pain            It's you who takes the shame
|5--2--5--2-5--10-----5-------2--------|
|7--3--7--3-7--10-----7-------3--------|
|--------------------------------------|
|--------------------------------------|
|--------------------------------------|
|--------------------------------------|

[repeat verse]
I am a young man, I ain't done very much
You men should remember how you used to fight
Just like a child, I've been seeing only dreams
I'm all mixed up but I know what's right

[repeat chorus]
I'm being put down (I'm being put down)
I'm getting pushed 'round (I'm getting pushed 'round)
I'm being beaten every day
My life's fading but things are changing
I'm not gonna sit and weep again
I'm not gonna weep again

[repeat intro and fade]
Tap to rate this tab
# A B C D E F G H I J K L M N O P Q R S T U V W X Y Z