Song name
# A B C D E F G H I J K L M N O P Q R S T U V W X Y Z

Who - The Real Me tab

Capo on 3

Cm   x35588           Fadd9/C  x37563
Bb   xx3366           F/C      x33568
F    xx3565           Cm7      x38888

[intro]
|Am  Am  | G A G A     |Am  Am |     G     D |Am     |        G    D |Am     |   G  D |
|5-------|----------|----5--|---3--2-|5---5--|---3--2-|----5--|---3--3----|
|5-------|----------|----5--|---3--3-|5---5--|---3--3-|----5--|---3--3----|
|2---2---|----2---2-|2---2--|---0--2-|2---2--|---0--2-|2---2--|---0--2----|
|2---2---|----2---2-|2---2--|---0--0-|2---2--|---0--0-|2---2--|---0--0----|
|0---0---|----0---0-|0------|--------|0------|--------|0------|-----------|
|--------|--3---3---|-------|--------|-------|--------|-------|-----------|

[verse]
|Am                   |         G  Am G  Am G |
    I went back to the doctor               to
|---------------------|--------------------------|
|---------------------|--------------------------|
|2--------------------|--------(0)-2-(0)-2-(0)---|
|2--------------------|--------(0)-2-(0)-2-(0)---|
|0--------------------|-----------0----0---------|
|---------------------|---------3----3----3------|

|Am   Am    |       G  Am G  Am G |
 Get another shrink      I sit and
|-----------|------------------------|
|-----5-----|------------------------|
|2----2-----|------(0)-2-(0)-2-(0)---|
|2----2-----|------(0)-2-(0)-2-(0)---|
|0----0-----|---------0-----0--------|
|-----------|-------3----3----3------|

|Am        Am     |       G  Am G  Am G |
 Tell him 'bout my weekend         but he
|-----------|------------------------|
|-----5-----|------------------------|
|2----2-----|------(0)-2-(0)-2-(0)---|
|2----2-----|------(0)-2-(0)-2-(0)---|
|0----0-----|---------0-----0--------|
|-----------|-------3----3----3------|
|Am      Am           |       G  D        |
 Never betrays what he thinks
|5-------5------------|-------3--2--------|
|5-------5------------|-------3--3--------|
|2-------2------------|-------0--2-----2/2|
|2-------2------------|-------0--0-----2/2|
|0-------0------------|----------------0/0|
|---------------------|-------------------|

[chorus]
|Am               |Am7     |Dadd9/A|D/A        |
   Can you see the real me? Doctor, doctor
|5-------------5/5|5-------|0------|5----------|
|5-------------5/5|5-------|3------|3----------|
|2-------------5/5|5-------|2------|2-------2/2|
|2-------------5/5|5-------|4------|0-------2/2|
|0-------------0/0|0-------|0------|0-------0/0|
|-----------------|--------|-------|-----------|

|Am               |Am7      |Dadd9/A|D/A      |
   Can you see the real me?  Doctor, whoa,
|5-------------5/5|5--------|0------|5------|
|5-------------5/5|5--------|3------|3------|
|2-------------5/5|5--------|2------|2------|
|2-------------5/5|5--------|4------|0------|
|0-------------0/0|0--------|0------|0------|
|-----------------|---------|-------|-------|

[repeat intro]
|Am  Am   |        G  F |Am     |            G  F |
 Doctor...
|----5----|---3--2-|-------|----3--2-|
|----5----|---3--3-|-------|----3--3-|
|2---2----|---0--2-|-------|----0--2-|
|2---2----|---0--0-|-------|----0--0-|
|0---0----|-------0|3^/0---|---------|
|---------|--------|-------|---------|

[repeat verse]
I went back to my mother, I said, I'm crazy, ma, help me
She said, I know how it feels, son, 'cause it runs in the family

[repeat chorus]
Can you see the real me? Mother, Mother
Can you see the real me? Mother, whoa, mama

|Am           |Am7          |Dadd9/A      |D/A                  |Am
   Can you see,  can you see,  can you see, can you see the real me?
|5------------|5------------|0------------|5----5---5----5------|
|5------------|5------------|3------------|3----3---3----3------|
|2---x--2-2-2-|5---x--------|2---x--------|2----2---2----2------|
|2-2-x--2-2-2-|5---x-5--5-5-|4---x-4-4-4--|0----0---0----0------|
|0-0----0-0-0-|0-0---0--0-0-|0-0---0-0-0--|0----0---0----0------|
|-------------|-------------|-------------|---------------------|

       |Am7         |Dadd9/A        |         |
Can you see, can you see the real me me me me?

|Am    |Am7     |Dadd9/A   |D/A

The cracks between the paving stones look like rivers of flowing veins
Strange people who know me peeping from behind every window pane
The girl I used to love lives in this yellow house
Yesterday she passed me by, she doesn't want to know me now

[repeat chorus]
|Am               |Am7     |Dadd9/A |D/A     |
   Can you see the real me? Can you, can you?

Can you see the real me? Can ya, oh, yeah.

    Am  G  Am  G   Am   G  Am G   G      D
||--------------------|-----------3--2---------|
||--------------------|-----------3--3---------|
||.-2--(0)-2--(0)--2--|(0)-2--(0)-0--2---.-----|
||.-2--(0)-2--(0)--2--|(0)-2--(0)-0--0---.-----|
||--0------0-----0--|---0----------------------|
||------3------3------|---3------3-------------|

I ended up with the preacher, full of lies and hate
I seemed to scare him a little, so he showed me to the golden gate

[repeat chorus]
|Am               |Am7     |Dadd9/A  |D/A      |
   Can you see the real me? Preacher, Preacher?

Can you see the real me? Preacher?

||:Am      |Am7     |Dadd9/A |D/A   :||

Can you see, can you see, can you see, oh
Can you see the real me? Doctor?

|Am               |Am7      |Dadd9/A|D/A
   Can you see the real me?  Mo......ther

Can you see the real me..............
Tap to rate this tab
 
# A B C D E F G H I J K L M N O P Q R S T U V W X Y Z