Song name
# A B C D E F G H I J K L M N O P Q R S T U V W X Y Z

Who - God Speaks To Marty Robbins tab

God Speaks of Marty Robbins  guitar tab

God Speaks of Marty Robbins | guitar tab
By The Who
>From Endless Wire, 2006
Written by Pete Townshend (c)2006 Eel Pie Publishing Ltd.

#----------------------------------PLEASE NOTE---------------------------------#
#This file is the author's own work and represents their interpretation of the #
#song. You may only use this file for private study, scholarship, or research. #
#------------------------------------------------------------------------------#

==============                                                        
transcribed by                             Whotabs                    
litgo@aol.com          2007-01-10          www.thewho.net/whotabs     
==============                                                        

Open Tuning: D A D A D E

[Picking pattern approximate]
[4/4]

|-------------|------------|--------------|----------------|
|-------------|------------|--------------|----------------|
|-------0-----|0-----------|-------0------|-----/5--4------|
|--0-h4---5-4-|------------|--0-h4---5-4--|2----/4--2------|
|-------------|------------|--------------|---0-0-0-0-0--0-|
|-------------|-0-0-0-0-0-0|--------------|----------------|

|------------------|------------|2------5--3---|
|----------0-------|------------|0------4--2---|
|5-4-0-------0-----|5-4-0-------|0------0--0---|
|------5-----------|------5-----|0-------------|
|0-------0--0--0---|-------0-0-0|--------------|
|------------------|------------|0-0-0---------|

|D                  |            |
And when the world began          
|2------------------|---3/5/3--1-|
|0------------------|---2/4/2----|
|0------------------|0-----------|
|0------------------|------------|
|-------------------|------------|
|-------------------|0-0-0-0-0-0-|

|                  |Aadd4         |
I'd been asleep for ever           
|------------------|--------------|
|------------------|--------------|
|------------------|---4--5--4----|
|------------------|---2--4--2----|
|------------------|0-0-0-0-0-0-0-|
|0-0-0-0-0-0-0-0-0-|--------------|

 |Aadd4                |               |D               |
I opened one eye  'Twas then that I got the whim to wake 
 |---------------------|---------------|---3---5--3--1--|
 |---------------------|---------------|---2---4--2--0--|
 |5--4---0-------------|5-4--0---------|---0---0--0--0--|
 |-----------5---------|----------5----|----------------|
 |0------------0-0-0-0-|-----------0-0-|----------------|
 |---------------------|---------------|0---------------|

And when the weight of space
Rolled like it was an ocean
One became one
Father and son watched the sunrise break

|               |Am          |Am               G     G   |
And as the ocean warmed          and from this dream we   
|---------------|8-----------|8----------------7-----7---|
|---------------|7-----------|7----------------5-----5---|
|---------------|7-----------|7----------------5-----5---|
|---------------|7-----------|7----------------5-----5---|
|---------------|0--0--0--0--|0--0--0---0--------0----0--|
|---------------|------------|---------------------------|

|D           |                         |Am          |
 Woke             One sang to greet the dawn         
|2-----3/5/3-|2------------------------|8-----------|
|0-----2/4/2-|0------------------------|7-----------|
|0-----------|0------------------------|7-----------|
|------------|0------------------------|7-----------|
|------------|-------------------------|0--0--0--0--|
|0-0-0-0-0-0-|0---0--0--0--0--0--0--0--|------------|

|                 G    G   |D           
   One pursed his lips and spoke        
|8----------------7----7---|2-----3/5/3-
|7----------------5----5---|0-----2/4/2-
|7----------------5----5---|0-----------
|7----------------5----5---|------------
|---0--0---0--------0----0-|------------
|--------------------------|0-0-0-0-0-0-

                      |D    G/D A/D  |D       G/D A/D |
  Wake up and hear the music            Wake up and hear
----------------------|2-------------|2---------------|
----------------------|0----5---7----|0--------5--7---|
----------------------|0----5---7----|0--------5--7---|
----------------------|0----5---7----|0--------5--7---|
----------------------|--------------|----------------|
----------------------|0-0-0-0-0-0-0-|0-0-0-0-0-0-0-0-|

The music play
Wake up and hear the music
Wake up and hear what the people say

I heard the heavens sing
Predicting Marty Robbins
I knew I'd find music and time
Were the perfect plan

I watched my son sail on
A little ship a-bobbin'
I had to grow
I needed to know exactly who I am

And as the ocean warmed
And from this dream we woke
One sang to greet the dawn
One pursed his lips and spoke

Wake up and hear the music ...


=============
litgo@aol.com

#----------------------------------PLEASE NOTE---------
Tap to rate this tab
# A B C D E F G H I J K L M N O P Q R S T U V W X Y Z