Song name
# A B C D E F G H I J K L M N O P Q R S T U V W X Y Z

Who - Hall Of The Mountain tab

Help us improve GuitareTab! Take a short survey!
HALL OF THE MOUNTAIN
THE WHO

| G   F   |  Eb  D  |      |

||------------------------------------|
||------------------------------------|
||------------------------------------|
||------------------------------------|
||--------3-5-5---5--4---4--3---3-----|
||--3-5-6-------6------5------4-------|


|------------------------------------||
|------------------------------------||
|------------------------------------||
|-------------------5-6-------5------||
|--------3-5-5---5------5---5--------||
|--3-5-6-------6----------6----------||



||-----------------------------------||
||-----------------------------------||
||-----------------------------------||
||--------0-2---2-2/3-3~-3~-2--------||
||--0-2-4-----4----------------------||
||-----------------------------------||

|| G    Bbm  A  Ab  ||
Related for Hall Of The Mountain tab