Song name
# A B C D E F G H I J K L M N O P Q R S T U V W X Y Z

Who - Song Is Over tab

                                 The Song Is Over (Pete Townshend)
                                            The Who
                                          Who's Next?


Intro (When the Guitar comes in) (00:04):
|-----------------------------------------------------------------------------------|
|-11\10-------------------------------------------------11--10----------------------|
|--------10h12p10-----------------------------------------------10------------------|
|-----------------12--10----8-----------3---3-----------------------10------10--10--|
|-----------------------------------------------------------------------------------|
|-----------------------------------------------------------------------------------|

Intro Piano Tab for Guitar:
|-10------8----------6-----8-------------|-10------8----------6-----8-----------|
|-10------8----------6---6-8---8h10p8----|-10------8----------6---6-8---8h10----|
|-----12-----7--10-----7--------------10-|-----12-----7--10-----7------------10-|
|----------------------------------------|--------------------------------------|
|----------------------------------------|--------------------------------------|
|-10------8----------6-----8-------------|-10------8----------6-----8-----------|

|-10------8----------6-----8-------------|-10------8----------6-----8-----------|
|-10------8----------6---6-8---8h10p8----|-10------8----------6---6-8---8h10----|
|-----12-----7--10-----7--------------10-|-----12-----7--10-----7------------10-|
|----------------------------------------|--------------------------------------|
|----------------------------------------|--------------------------------------|
|-10------8----------6-----8-------------|-10------8----------6-----8-----------|


Piano Tab For Guitar:

(From "The song is over, it's all behind me")
|-10------8----------6-----8-----------|-10------8----------6-----8-----------|
|-10------8----------6---6-8---8h10----|-10------8----------6---6-8---8h10----|
|-----12-----7--10-----7------------10-|-----12-----7--10-----7------------10-|
|--------------------------------------|--------------------------------------|
|--------------------------------------|--------------------------------------|
|-10------8----------6-----8-----------|-10------8----------6-----8-----------|

(From "I should have known it, she tried to find me")
|-10------8----------6-----8-----------|-10------8----------6-----8-----------|
|-10------8----------6---6-8---8h10----|-10------8----------6---6-8---8h10----|
|-----12-----7--10-----7------------10-|-----12-----7--10-----7------------10-|
|--------------------------------------|--------------------------------------|
|--------------------------------------|--------------------------------------|
|-10------8----------6-----8-----------|-10------8----------6-----8-----------|


Where guitar comes in:
|----------------------------------|
|----------------------------------|
|----------------------------------|
|-3-----3/5-3--------------------3-|
|---------------3h5----3-----------|
|------------------------6-3--\1-1-|


(From "Our love is over, they're all ahead now")
|-10------8----------6-----8-----------|-10------8----------6-----8-----------|
|-10------8----------6---6-8---8h10----|-10------8----------6---6-8---8h10----|
|-----12-----7--10-----7------------10-|-----12-----7--10-----7------------10-|
|--------------------------------------|--------------------------------------|
|--------------------------------------|--------------------------------------|
|-10------8----------6-----8-----------|-10------8----------6-----8-----------|

(From "I've got to learn it, I'm gonna sing out")
|-10------8----------6-----8-----------|-10------8----------6-----8-----------|
|-10------8----------6---6-8---8h10----|-10------8----------6---6-8---8h10----|
|-----12-----7--10-----7------------10-|-----12-----7--10-----7------------10-|
|--------------------------------------|--------------------------------------|
|--------------------------------------|--------------------------------------|
|-10------8----------6-----8-----------|-10------8----------6-----8-----------|


A#
  I'll sing my song to the wide open spaces

A#
  I'll sing my heart out to the infinite sea

C
  I'll sing my visions to the sky mountains

C
  I'll sing my songs to the free


C#
  I'll sing my songs to the wide open spaces

C#
  I'll sing my heart out to the infinite sea


D#
  I'll sing my visions to the sky mountains

C
  I'll sing my songs to the free


Guitar Solo:
                                              "To the free"
|-------------------------------------------------------------------|
|-11p10-------------------------------------------------------------|
|----------10-x-10---------7r5-3-5-3-----------------------8/10-10--|
|-------10-------------------------------------------------8/10-10--|
|-------------------------------------3-3-1h3-----------------------|
|------------------6h8----------------------------------------------|

|------------------------------------------------------15--------------------------|
|-15--15--13h15--13h15--13h15--13h15--13h15--13h15--15-----13h15-12----------------|
|--------------------------------------------------------------------12----12--12\-|
|-----------------------------------------------------------------------14---------|
|----------------------------------------------------------------------------------|
|----------------------------------------------------------------------------------|

|-----------------------------------5----------------------------------------8-8----|
|----------------------------------------------------------------------------8-8----|
|----3--3--5p3-----------3-----4b6------6r4p2--------------------------------7-7----|
|-5------------5-5---3h5----------------------4-2-----------------0----5h7----------|
|-------------------------------------------------4-2--0----0h2h4-------------------|
|-----------------------------------------------------------------------------------|


B                  A
 When I walked you to the door

B                        A
 Thought it was me I was looking for

A                         G
 She was the first song I ever sang

       Em                       C
But it stopped too soon as it began


Piano Tab for Guitar:
|-10------8----------6-----8-------------|-10------8----------6-----8-----------|
|-10------8----------6---6-8---8h10p8----|-10------8----------6---6-8---8h10----|
|-----12-----7--10-----7--------------10-|-----12-----7--10-----7------------10-|
|----------------------------------------|--------------------------------------|
|----------------------------------------|--------------------------------------|
|-10------8----------6-----8-------------|-10------8----------6-----8-----------|

(From "Our love is over, It's all behind me")
|-10------8----------6-----8-----------|-10------8----------6-----8-----------|
|-10------8----------6---6-8---8h10----|-10------8----------6---6-8---8h10----|
|-----12-----7--10-----7------------10-|-----12-----7--10-----7------------10-|
|--------------------------------------|--------------------------------------|
|--------------------------------------|--------------------------------------|
|-10------8----------6-----8-----------|-10------8----------6-----8-----------|

(From "They're all ahead now, Can't hope to find me")
|-10------8----------6-----8-----------|-10------8----------6-----8-----------|
|-10------8----------6---6-8---8h10----|-10------8----------6---6-8---8h10----|
|-----12-----7--10-----7------------10-|-----12-----7--10-----7------------10-|
|--------------------------------------|--------------------------------------|
|--------------------------------------|--------------------------------------|
|-10------8----------6-----8-----------|-10------8----------6-----8-----------|

A#
  I'll sing my song to the wide open spaces

A#
  I'll sing my heart out to the infinite sea

C
  I'll sing my visions to the sky mountains

C
  I'll sing my songs to the free


C#
  I'll sing my songs to the wide open spaces

C#
  I'll sing my heart out to the infinite sea


D#
  I'll sing my visions to the sky mountains

C                                  G
  I'll sing my songs to the free

|----------------8--------------------------------|
|-----------------8-------------------------------|
|------2-----------7p5-----7---5---3----------3---|
|-5----2-------------------7---5---3----------3---|
|-5----0--------------------------------------1---|
|-3-----------------------------------------------|

Piano Tab for Guitar:
|-10------8----------6-----8-------------|-10------8----------6-----8-----------|
|-10------8----------6---6-8---8h10p8----|-10------8----------6---6-8---8h10----|
|-----12-----7--10-----7--------------10-|-----12-----7--10-----7------------10-|
|----------------------------------------|--------------------------------------|
|----------------------------------------|--------------------------------------|
|-10------8----------6-----8-------------|-10------8----------6-----8-----------|

(From "The song is over...")
|-10------8----------6-----8-----------|-10------8----------6-----8-----------|
|-10------8----------6---6-8---8h10----|-10------8----------6---6-8---8h10----|
|-----12-----7--10-----7------------10-|-----12-----7--10-----7------------10-|
|--------------------------------------|--------------------------------------|
|--------------------------------------|--------------------------------------|
|-10------8----------6-----8-----------|-10------8----------6-----8-----------|

(From "I must remember...")
|-10------8----------6-----8-----------|
|-10------8----------6---6-8---8h10----|
|-----12-----7--10-----7------------10-|
|--------------------------------------|
|--------------------------------------|
|-10------8----------6-----8-----------|


Guitar:
|-----------------------------------------|
|-----------------------------------------|
|--------------------5---------5-----5----|
|-/3---------------------5--------5-----5-|
|----------1h3----------------------------|
|-----------------------------------------|


C
 The song is over

C
 The song is over

C
 searchin' for notes, pure and easy

C
 playin' so free like a breath rippling by


Outro:
|-------------------------------------------------------------------------------------------|
|-------------------------------------------------------------------------------------------|
|---5-----5------5-----5------5-----5------5-----5------5-----5------5-----5------5-----5---|
|-------------------------------------------------------------------------------------------|
|-3-----3------3-----3------3-----3------3-----3------3-----3------3-----3------3-----3-----|
|-------------------------------------------------------------------------------------------|

|---------------------------------------------------------|
|-----------------------------------------------------5---|
|---5-----5------5-----5------5-----5------5-----5----5---|
|-----------------------------------------------------5---|
|-3-----3------3-----3------3-----3------3-----3------3---|
|---------------------------------------------------------|
Tap to rate this tab
# A B C D E F G H I J K L M N O P Q R S T U V W X Y Z