Song name
# A B C D E F G H I J K L M N O P Q R S T U V W X Y Z

Who - Early Morning Cold Taxi tab

  A                   D       E   A               D    E
|---7--9--9--7--7---|-7--5-5--7-|---------------|----2-4---|
|---10-10-10-10-10--|-7--7-7--9-|---0-2-2-0-2---|--3-------|
|---9--9--9--9--9---|-7--7-7--9-|---2-2-2-2-2---|---2----4-|
|-------------------|-----------|---2-2-2-2-2---|-0--------|
|-------------------|-----------|-0-------------|----------|
|-------------------|-----------|---------------|----------|

  A              D     E   A
|---5-5-5-5-5--|---------|-5---5-----5---|------------|
|---5-5-5-0-5--|-7-7-7-9-|-----5-----5---|------------|
|---6-6-6-6-6--|-7-7-7-9-|-6---6-----6---|------------|
|---7-7-7-7-7--|---------|-----7-7---7-7-|------------|
|-0------------|---------|---0-----0-----|-5-5---0-0--|
|--------------|---------|---------------|------------|
Tap to rate this tab
# A B C D E F G H I J K L M N O P Q R S T U V W X Y Z