Song name
# A B C D E F G H I J K L M N O P Q R S T U V W X Y Z

Who - Bucket T tab

Highlighted       Show chord diagrams
Bucket T
By The Who, 1966
>From A Quick One/Magic Bus
Written by Altfield/Christian/Torrance

Bucket bucket T T, bucket T bucket T,
A
Bucket bucket T T, bucket T bucket T,
Bucket bucket T T, bucket T bucket T,

F#
Found her in a barn in Tennessee
I paid five bucks for my Bucket T
Took me three years of sweat and blood
To clean off all that Tennessee mud

[chorus]
   B        
My Bucket T (Bucket T)
F#   
Bucket T (Bucket T)
   B 
My Bucket T (Bucket T)
   C#
My Bucket T (Bucket T)

[horn arr for gtr]
  A
|--------|------|--------|------|--------|------|--------|------|
|-7-5--7-|-5----|-7-5--7-|-5----|-7-5--7-|-5----|--------|-----5|
|--------|--6---|--------|------|--------|--6---|-6------|------|
|--------|------|--------|------|--------|------|---7--4-|-7----|
|--------|------|--------|------|--------|------|--------|------|
|--------|------|--------|------|--------|------|--------|------|

|-5-5-|-9-5---|-5-5-|---------|--5-5-|-9-5---|---------|------|
|-----|------5|-----|-7-5---5-|------|-------|-7-5---7-|-5----|
|-----|-------|-----|---------|------|-------|---------|--6---|
|-----|-------|-----|---------|------|-------|---------|------|
|-----|-------|-----|---------|------|-------|---------|------|
|-----|-------|-----|---------|------|-------|---------|------|

T T T... Bucket bucket bucket...

Cruisin' down the street in front of school
I wanna rev it up but I gotta be cool
Drivin' down the road I'll get my kicks
A'poppin' the clutch and slippin' the sticks

[repeat chorus]

[second horn arr for gtr]
  A
|--------|------|--------|------|--------|------|--------|------|
|--------|------|--------|------|--------|------|--------|------|
|--------|------|--------|------|--------|------|--------|------|
|-4-2--4-|-2----|-4-2--4-|-2----|-4-2--4-|-2----|--------|-----2|
|--------|--4---|--------|------|--------|--4---|-4-0----|-0----|
|--------|------|--------|------|--------|------|------2-|------|

|-----|-------|-----|---------|------|-------|---------|------|
|-----|-2-----|-----|---------|------|-2-----|---------|------|
|-2-2-|---2---|-2-2-|---------|--2-2-|---2---|---------|------|
|-----|------2|-----|-4-2---2-|------|-------|-4-2---4-|-2----|
|-----|-------|-----|---------|------|-------|---------|--4---|
|-----|-------|-----|---------|------|-------|---------|------|

T T (Peter T) T.. Bucket bucket bucket...

Out the track city, she's first in her class
There's nothing on the freeway she don't pass
All the girls want to take a ride with me
But there's only one seat in my Bucket T

[repeat chorus]

Bucket T...


Tap to rate this tab
# A B C D E F G H I J K L M N O P Q R S T U V W X Y Z