Song name
# A B C D E F G H I J K L M N O P Q R S T U V W X Y Z

Who - Baba Oriley Acoustic tab

NOTE: Capo 1st Fret.

This is my first tab... it sounds good to me, this is how i play it, but it's tough to 
the synthesizer and the guitar into one. The chords are on bottom also if you need to get 
timing down. It's pretty technical.


INTRO RIFF: Synthesizer


     E (you can mute the G string if you want)
E |----------0-0-------------0-0-------------|
B |------0-0-----0-0-----0-0-----0-0---------|
G |------------------------------------------|
D |--2-2-------------2-2---------------------|      X a lot
A |------------------------------------------|
E |------------------------------------------|


INTRO Cont. (The B chord is not barred, and the A is really A#, I know, but it's easier 
name the chords relative to the capo)


       E             B? A Asus2
E |----0-----0-0-----0--0-----0-0-------------0-0------|
B |----0-0-0-----0-0-4--2-0-0-----0-0-----0-0-----0-0--|
G |----1-------------4--2------------------------------|
D |----2-------------4--2-------------2-2--------------|     X8
A |----2-------------0--0------------------------------|
E |----0-------------x--x------------------------------|


VERSE RIFF (VERSE I - same as above)


After "I don't need to be forgiven, yeah yeah..." play verse riff 5 times then:

      E
E |---0-----0-0-------------0-0------|
B |---0-0-0-----0-0-----0-0-----0-0--|
G |---1------------------------------|     X3
D |---2-------------2-2--------------|
A |---2------------------------------|
E |---0------------------------------|


E |----------0-0-------------0-0------|
B |------0-0-----0-0-----0-0-----0-0--|
G |-----------------------------------|
D |--2-2-------------2-2--------------|
A |-----------------------------------|
E |-----------------------------------|


E |----------0-0-------------0-0-------------0-0-------------0-0------|
B |------0-0-----0-0-----0-0-----0-0-----0-0-----0-0-----0-0-----0-0--|
G |-------------------------------------------------------------------|
D |--2-2-------------2-2-------------2-2-------------2-2--------------|
A |-------------------------------------------------------------------|
E |-------------------------------------------------------------------|
   Don't cry...

E |----------0-0-------------0-0-------------0-0-------------0-0------|
B |------0-0-----0-0-----0-0-----0-0-----0-0-----0-0-----0-0-----0-0--|
G |-------------------------------------------------------------------|
D |--2-2-------------2-2-------------2-2-------------2-2--------------|
A |-------------------------------------------------------------------|
E |-------------------------------------------------------------------|
   Don't raise your eye...

E |----------0-0-------------0-0-------------0-0-------------0-0------|
B |------0-0-----0-0-----0-0-----0-0-----0-0-----0-0-----0-0-----0-0--|
G |-------------------------------------------------------------------|
D |--2-2-------------2-2-------------2-2-------------2-2--------------|
A |-------------------------------------------------------------------|
E |-------------------------------------------------------------------|
   It's only teenage -


E |----------0-0-------------0-0-------------0-0-------------0-0------|
B |------0-0-----0-0-----0-0-----0-0-----0-0-----0-0-----0-0-----0-0--|
G |-------------------------------------------------------------------|
D |--2-2-------------2-2-------------2-2-------------2-2--------------|
A |-------------------------------------------------------------------|
E |-------------------------------------------------------------------|
    - wasteland!


BACK TO VERSE RIFF (VERSE II)


SOLO (stop the "synthesizer" for this part)


E |--13----13-------------------13-15-13-15h17-13-13-----------------------|
B |-----------13-13h15-15-15~~------------------------15-13-15-13-15-13~~~~|
G |------------------------------------------------------------------------|
D |------------------------------------------------------------------------|
A |------------------------------------------------------------------------|
E |------------------------------------------------------------------------|

               E             B? A Asus2
E |------------0-----0-0-----0--0-----0-0-------------0-0-------|
B |------------0-0-0-----0-0-4--2-0-0-----0-0-----0-0-----0-0---|
G |------------1-------------4--2-------------------------------|
D |------------2-------------4--2-------------2-2---------------|
A |------------2-------------0--0-------------------------------|
E |------------0-------------x--x-------------------------------|
   ...teenage WASTELAND!                                 It's only


               E             B? A Asus2
E |------------0-----0-0-----0--0-----0-0-------------0-0-------|
B |------------0-0-0-----0-0-4--2-0-0-----0-0-----0-0-----0-0---|
G |------------1-------------4--2-------------------------------|
D |------------2-------------4--2-------------2-2---------------|
A |------------2-------------0--0-------------------------------|
E |------------0-------------x--x-------------------------------|
      teenage wasteland!


               E             B? A Asus2
E |------------0-----0-0-----0--0-----0-0-------------0-0-------|
B |------------0-0-0-----0-0-4--2-0-0-----0-0-----0-0-----0-0---|
G |------------1-------------4--2-------------------------------|
D |------------2-------------4--2-------------2-2---------------|
A |------------2-------------0--0-------------------------------|
E |------------0-------------x--x-------------------------------|
      Teenage wasteland, oh yeah!


               E             B? A Asus2
E |------------0-----0-0-----0--0-----0-0-------------0-0-------|
B |------------0-0-0-----0-0-4--2-0-0-----0-0-----0-0-----0-0---|
G |------------1-------------4--2-------------------------------|
D |------------2-------------4--2-------------2-2---------------|
A |------------2-------------0--0-------------------------------|
E |------------0-------------x--x-------------------------------|
      teenage wasteland!                       They're all


  (Strike chords 1 time and mute, but let last A ring)
               E
E |------------0---0---0---0---0-----------------------------|
B |------------0---0---4---4---2-----------------------------|
G |------------1---1---4---4---2-----------------------------|
D |------------2---2---4---4---2-----------------------------|
A |------------2---2---0---0---0-----------------------------|
E |------------0---0---x---x---x-----------------------------|
             WASTED!!


I don't play the ending solo. I just play:


                                 E
E |--12-13-15-12-13-15-12h13p12--0-------------------|
B |------------------------------0-------------------|
G |------------------------------1-------------------|
D |------------------------------2-------------------|
A |------------------------------2-------------------|
E |------------------------------0-------------------|

CHORDS:

  E            B      A
     Out here in the fields
  E            B      A
     I fight for my meals
  E            B      A
     I get my back into my living.
  E            B      A
     I don't need to fight
  E            B      A
     To prove I'm right
  E            B      A
     I don't need to be forgiven.
  E            B      A
     yeah,yeah,yeah,yeah,yeah


     Don't cry

     Don't raise your eye
                       E            B      A
     It's only teenage wasteland
  E            B      A
     Sally, take my hand
  E              B        A
     We'll travel south cross land
  E           B   A
     Put out the fire
          E            B     A
     And don't look past my shoulder.
  E              B     A
     The exodus is here
  E                B    A
     The happy ones are near
     E                 B
     Let's get together
  A                     E      B   A
     Before we get much older.


              E           B
     Teenage wasteland
  A                     E        B      A
     It's only teenage wasteland.
              E         B          A
     Teenage wasteland, oh yeah!
              E          B        A
     Teenage wasteland
                   E             B          A
     They're all wasted!
Tap to rate this tab
 
# A B C D E F G H I J K L M N O P Q R S T U V W X Y Z