Song name
# A B C D E F G H I J K L M N O P Q R S T U V W X Y Z

Who - Top Gear tab

[main riff]

x4

||-------------|-------------||
||-------------|-------------||
||.------------|------------.||
||.--9/7-7-7/9-|--9/7-7-7/9-.||
||---7/5-5-5/7-|--7/5-5-5/7--||
||-0-----------|0------------||

 

E |E |E |E |
Top gear! Top gear! 
||------------|------------|------------|------------|
||------------|------------|------------|------------|
||------------|------------|------------|------------|
||--9/7-7-7/9-|--9/7-7-7/9-|--9/7-7-7/9-|--9/7-7-7/9-|
||--7/5-5-5/7-|--7/5-5-5/7-|--7/5-5-5/7-|--7/5-5-5/7-|
||0-----------|0-----------|0-----------|0-----------|

 

|A |A |E |E |

Top gear! Top gear! Ahhh Ahhh 
|-----------|-----------|-----------|-----------|----|----|
|-----------|-----------|-----------|-----------|----|----|
|--9/7-7-7/9|--9/7-7-7/9|-----------|-----------|4---|2---|
|--7/5-5-5/7|--7/5-5-5/7|--9/7-7-7/9|--9/7-7-7/9|4---|2---|
|0----------|0----------|--7/5-5-5/7|--7/5-5-5/7|2---|0---|
|-----------|-----------|0----------|0----------|----|----|

 

|E |E |E ||

Ahh Top gear! 
|------------|------------|0-0----||
|------------|------------|0-0----||
|------------|------------|9-9----||
|--9/7-7-7/9-|--9/7-7-7/9-|9-9----||
|--7/5-5-5/7-|--7/5-5-5/7-|7-7----||
|0-----------|0-----------|0-0----||

Tap to rate this tab
# A B C D E F G H I J K L M N O P Q R S T U V W X Y Z