Song name
# A B C D E F G H I J K L M N O P Q R S T U V W X Y Z

Whole Wheat Bread - Never Scared tab

pretty much guitar and bass for the whole song i think anyways...
great easy song to play with your garage band...

standard tuning
e|--------------------------------|
B|--------------------------------|
G|--------------------------------|
D|--------------------------------|
A|------2---------2---2-----------|
E|-0-------3----3--------3--3-0---|repeat

e|--------------------------------|
B|--------------------------------|
G|------4--------4---4------------|
D|-2----4--5---5-4---4--5--5-2----|
A|-2----2--5---5-2---2--5--5-2----|
E|-0-------3---3--------3--3-0----|repeat
Tap to rate this tab
# A B C D E F G H I J K L M N O P Q R S T U V W X Y Z