Song name
# A B C D E F G H I J K L M N O P Q R S T U V W X Y Z

Whole Wheat Bread - Weezer With Lil Jon And Ice Cube tab

This was an awesome acoustic song they did for YouTube.

http://www.youtube.com/watch?v=8uezEWkH0uM

=====================
| TUNING: Standard  |
=====================

INTRO: 
e|--------------------------------------|
B|--------------------------------------|
G|------3-4-------3-4------4-3-----3-4--|
D|--------------5--------7-------5------|
A|----5-------3--------5-------3--------|
E|--3-----------------------------------|


CHORUS:
e|--------------------------------------|
B|--------------------------------------|
G|-----------5-5-5-5--7-7-7-7--5-5-5-5--|
D|--5-5-5-5--5-5-5-5--7-7-7-7--5-5-5-5--|    x4
A|--5-5-5-5--3-3-3-3--5-5-5-5--3-3-3-3--|    
E|--3-3-3-3-----------------------------|


VERSE:
e|--------------------------------------|
B|--------------------------------------|
G|------3-4-------3-4------4-3-----3-4--|
D|--------------5--------7-------5------|    x4
A|----5-------3--------5-------3--------|
E|--3-----------------------------------|


CHORUS

VERSE

CHORUS


ENDING:
(Strum lightly)

e|--3--3--5--3--|
B|--3--5--7--3--|
G|--4--5--7--4--|
D|--5--5--7--5--|
A|--5--3--5--5--|
E|--3--------3--|
Tap to rate this tab
# A B C D E F G H I J K L M N O P Q R S T U V W X Y Z