Song name
# A B C D E F G H I J K L M N O P Q R S T U V W X Y Z

Why - Crushed Bones tab

-------------------------------------------------------------------------------
			     SONG NAME - Band Name
-------------------------------------------------------------------------------
WHY? - Crushed bones (Intro.)
Tabbed by: Jeff Cooper
Email: j_cooper@fanshaweonline.ca

Tuning: Standard
Play with your Thumb, index finger and ring finger.

Play intro x2 except final bar. Play final bar only the first time around.
e|---------------------------------------------------------------------------|
B|--------0-----1p0-----0--------0-----1p0-----0--------0-----1p0-----0------|
G|---------------------------------------------------------------------------|
D|-----2-----2-------2--------2-----2-------2--------2-----2-------2---------|
A|--3----------------------0-------------------------------------------------|
E|------------------------------------------------1--------------------------|

e|---------------------------------------------------------------------------|
B|--------0-----1p0-----0--------0-----1p0-----0--------0-----1p0-----0------|
G|---------------------------------------------------------------------------|
D|-----2-----2-------2--------2-----2-------2--------2-----2-------2---------|
A|---------------------------------------------------------------------------|
E|--0----------------------1----------------------0--------------------------|

e|------------------------|  -------------------------| 
B|--------0-----1p0-----0-|  --------0-----1p0-----0--|   <-- Only play
G|------------------------|  -------------------------|  first time around.
D|-----2-----2-------2----|  -----2-----2-------2-----|  
A|------------------------|  -------------------------|
E|--1---------------------|  --0----------------------|

Play this the 2nd time around.
e|--------------------------------------|
B|--------0-----0--------0--------0-----|
G|--------------------------------------|
D|-----2-----2--------2--------2--------|  
A|--------------------------------------|
E|--3--------------3--------3-----------|

to inhaling crushed bones...

| /  slide up
| \  slide down
| h  hammer-on
| p  pull-off
| ~  vibrato
| +  harmonic
| x  Mute note
===============================================================================
Tap to rate this tab
 
# A B C D E F G H I J K L M N O P Q R S T U V W X Y Z