Song name
# A B C D E F G H I J K L M N O P Q R S T U V W X Y Z

Why - Eskimo Snow tab

-------------------------------------------------------------------------------
                             ESKIMO SNOW – Why?
-------------------------------------------------------------------------------
Tabbed by: peculiarnoise
Email: kkrull.email@gmail.com

Tuning: Drop D (DADGBE)

Main Riff:
e|---------------------------------------------------------------------------|
B|---------------------------------------------------------------------------|
G|-----7--------7--------7------0--------------------------------------------|
D|---0---0---4-4-4-4---0---0---------0-----repeat-this-----------------------|
A|--5-5-5-5---5---5---7-7-7-7--9-9--7-7--------------------------------------|
D|-5--------0--------7--------9----7-----------------------------------------|

“are hummed as prayers in secret ...” (0:34)

e|---------------------------------------------------------------------------|
B|---------------------------------------------------------------------------|
G|---------------------0-------7-----------------------0-------0-------------|
D|--5555-------------0---0---0---0---5555------------0---0---0---0-----------|
A|--5555-x8--then---0-0-0-0-0-0-0-0--5555-x8--then--0-0-0-0-0-0-0-0----------|
D|--5555-----------0-------0---------5555----------0-------0-----------------|

after this, go back to the main riff and play it through to the end.
Tap to rate this tab
# A B C D E F G H I J K L M N O P Q R S T U V W X Y Z