Why - The Hollows tab

Intro/Verses

e-------------------------------    ------------------------------|
B-------------------------------    ------------------------------|
G------- 7-5-------5-7------7-5-     -------7-5------5-7-----5----|
D-0-5-7-----0-5-7-----0-5-7----     -0-5-7-----0-5-7----0-7---8-7-|
A------------------------------     ------------------------------|
E------------------------------     ------------------------------|

Chorus

e---------------------------------------------|
B---------------------------------------------|
G---------------------------------------------|
D-(pm)7777-7-(pm)3333-3------------(pm)7777-7-|
A-(pm)5555-5-(pm)1111-1-(pm)5555-5-(pm)5555-5-|
E-----------------------(pm)3333-3------------|


Bridge ("In Berlin I saw...")

*Note: this segment is only subjective because there is little audible guitar. This tab 
largely for the piano parts and are played as whole notes (4 counts/chord)

e------------------|
B------------------|
G-------7----------|
D-5--3--7--5--3--5-|
A-5--3--5--5--3--5-|
E-3--1-----3--1--3-|


Fill (1:43-1:48)

e-------------------|
B-3333-3333-3333--3-|
G-5555-4444-3332--0-|
D-------------------|
A-------------------|
E-------------------|


Order:

Intro/Verse
Chorus
Intro/Verse
Chorus
Bridge
Fill
Bridge
Chorus
Intro/Verse
Chorus
Intro/Verse


There's really more bass and piano than guitar in this song, but this plays along well 
with the recording. Thanks for the awesome song Why?!
Tap to rate this tab
 
# A B C D E F G H I J K L M N O P Q R S T U V W X Y Z