Song name
# A B C D E F G H I J K L M N O P Q R S T U V W X Y Z

Why - Eskimo Snow tab

Tuning: DADGBD (drop high and low E to D)


d|--------0-------|--------0-------|--------0-------|----------------|
B|----------------|----------------|----------------|----------------|
G|----------------|----------------|----------------|----0-----------|  
D|----0-------0---|----0-------0---|----0-------0---|------------0---|
A|--5---5---5---5-|--9---9---9---9-|--7---7---7---7-|--9---9---7---7-|
D|5---------------|0---------------|7---------------|9-------7-------|

repeat above 4 times (2 for intro, 2 for verse)...


 "Are hummed as prayers in secret..."
 "Even when I'm wasted and numb..."

d|----------------|     |--------0-------|
B|----------------|     |----------------|
G|4-4-4-4-4-4-4-4-| x4  |----------------| x2
D|0-0-0-0-0-0-0-0-|     |----0-------0---|
A|5-5-5-5-5-5-5-5-|     |--5---5---5---5-|
D|5-5-5-5-5-5-5-5-|     |5---------------|


Repeat first riff for remainder of song (8 times).



Tap to rate this tab
 
# A B C D E F G H I J K L M N O P Q R S T U V W X Y Z