Song name
# A B C D E F G H I J K L M N O P Q R S T U V W X Y Z

Why - Light Leaves tab

One of the best songs from Why?. I'm almost 100% this is flawless. Also, this is my
tab, so bear with me.  It sounds best if you keep your fingers pressed against the fretboard
slide aggressively to the next position. This song also has some of the same fingering 
as in "Blackbird" by the Beatles if that helps you at all. Enjoy

Intro
e|---------------------------------------------------------------------------|
B|------7-----7------7-----7-----5-----5----5----5----8----8----8----8-------|
G|----0-----0-----0------0------0----0----0----0----0----0----0----0---------|
D|---------------------------------------------------------------------------|
A|--5-----5-----5------5------3----3----3----3----7----7----7----7-----------|
E|---------------------------------------------------------------------------|

e|---------------------------------------------------------------------------|
B|------10-----10----12----12----7----7-----7----7----5----5---5---5---------|
G|----0------0-----0-----0-----0----0----0-----0----0----0----0---0----------|
D|---------------------------------------------------------------------------|
A|--9------9-----10----10----5----5----5-----5----3----3----3---3------------|
E|---------------------------------------------------------------------------|

e|---------------------------------------------------------------------------|
B|------9-----9----9----9----7----7----3----3--------------------------------|
G|----0-----0----0----0----0----0----0----0----------------------------------|
D|---------------------------------------------------------------------------|
A|--7-----7----7----7----5----5----1----1------------------------------------|
E|---------------------------------------------------------------------------|
Tap to rate this tab
 
# A B C D E F G H I J K L M N O P Q R S T U V W X Y Z