Guitaretab - guitar tabs
Song name
# A B C D E F G H I J K L M N O P Q R S T U V W X Y Z

Wicked Chemistry - Sweating Beads tab

ARTIST:WICKED CHEMISTRY
SONG:SWEATING BEADS
ALBUM:AS WICKED AS YOU PLEASE

STANDARD TUNING

AFTER BASS AND DRUMS WITH DISTORTION

e-----------
B-----------
G-----------
D-----------
A--2-1------
E-------2-1-

THEN

e----------                 e----
B----------                 B----
G----------  THE LAST NOTE  G----
D----------                 D---- 
A----------                 A----
E--2-1-2-1-                 E-7-- LET NOTE RING

MAIN RIFF
e-----------------
B-----------------
G-----------------
D-2--2-2--2-3-3-2-
A-2--2-2--2-3-3-2-
E-0--0-0--0-1-1-0-
[ Tab from: http://www.guitaretab.com/w/wicked-chemistry/45405.html ]
PRE-CHORUS/CHORUS "GONNA TAKE YOU AND YOU'LL NEVER BE THE SAME"
e---------------------------------------------------
B---------------------------------------------------
G---------------------------------------------------
D-5-5-5-5-5-5-5-5--7-7-7-7-7-7-7-7--9-9-9-9-9-9-9-9-
A-5-5-5-5-5-5-5-5--7-7-7-7-7-7-7-7--9-9-9-9-9-9-9-9-
E-3-3-3-3-3-3-3-3--5-5-5-5-5-5-5-5--7-7-7-7-7-7-7-7-
THEN "GONNA TAKE YOU AND PUT YOU THROUGH THE FLOOR"
e-------------------------------------------------------------------
B-------------------------------------------------------------------
G-------------------------------------------------------------------
D-5-5-5-5-5-5-5-5--7-7-7-7-7-7-7-7--9-9-9-9-9-9-9-9-9-9-9-9-9-9-9-9-
A-5-5-5-5-5-5-5-5--7-7-7-7-7-7-7-7--9-9-9-9-9-9-9-9-9-9-9-9-9-9-9-9-
E-3-3-3-3-3-3-3-3--5-5-5-5-5-5-5-5--7-7-7-7-7-7-7-7-7-7-7-7-7-7-7-7-

MAIN RIFF
THATS IT WICKED ONES. ILL DO THE SOLO LATER.
VAN HALEN!, SLASH!, DAVID?