Guitaretab - guitar tabs
Song name
# A B C D E F G H I J K L M N O P Q R S T U V W X Y Z

Wicked Relish - In From The Outside tab

----------------------------------------------------------------------------
                 WICKED RELISH - IN FROM THE OUTSIDE
-----------------------------------------------------------------------------
Tabbed by:JUAN ZUNIGA
Email:Juanitozng@yahoo.com

Tuning:EADGBE

e|--222----------------------------------------------------------------------------------|
B|--333----------------------------------------------------------------------------------|
G|--222-------77--------------5----------------------------------------------------------|
D|--000-------77------333--- -5----5-----------------------------------------------------|
A|------------55------333-----3----5-----------------------------------------------------|
E|------------------- 111----------3-----------------------------------------------------|
[ Tab from: http://www.guitaretab.com/w/wicked-relish/100824.html ]
e|--222----------------------------------------------------------------------------------|
B|--333----------------------------------------------------------------------------------|
G|--222-------77-------------------------------------------------------------------------|
D|--000-------77------333----55----------------------------------------------------------|
A|------------55------333----55----------------------------------------------------------|
E|------------------- 111----33----------------------------------------------------------|

e|---------------------------------------------------------------------------|
B|---------------------------------------------------------------------------|
G|---------------------------------------------------------------------------|
D|---------------------------------------------------------------------------|
A|---------------------------------------------------------------------------|
E|---------------------------------------------------------------------------|