Guitaretab - guitar tabs
Song name
# A B C D E F G H I J K L M N O P Q R S T U V W X Y Z

Widespread Panic - From The Cradle tab

-------------------------------------------------------------------------------
			From The Cradle  Widespread Panic
-------------------------------------------------------------------------------

Tabbed by: Andrew Yohn
Email: andrewyoh@gmail.com

Tuning: Standard
   *	Verse
e|-3-----5----3----5----5----3----5---|
B|-3-----5----3----5----5----3----5--|
G|-2-----6----4----7----6----5----7--|
D|-0-----7----5----7----7----5----7--|
A|-0-----7----5----5----7----3----5---|
E|-x-----5----3----5----5----3----5---|
     x----X2-----x--------------------|
[ Tab from: http://www.guitaretab.com/w/widespread-panic/100657.html ]
e|---5---1---3---5---2----5\----------|
B|---5---1---3---5---3----5\----------|
G|---6---2---4---7---4----7\----------|
D|---7---3---5---7---4----7\----------|
A|---7---3---5---5---2----5\----------|
E|---5---1---3---5---x----5\----------|
                 X3
e|3/5---1--3--3/5----2----5----|
B|3/5---1--3-3/5----3----5----|
G|4/6---2--4-5/7----4----7----|
D|5/7---3--5-5/7----4----7----|
A|5/7---3--5-3/5----2----5----|
E|3/5---1--3-3/5----x----5----|

| /  slide up
| \  slide down
| h  hammer-on
| p  pull-off
| ~  vibrato
| +  harmonic
| x  Mute note
| *  Hold note until verse begins
====================================
Related for From The Cradle tab