Song name
# A B C D E F G H I J K L M N O P Q R S T U V W X Y Z

Widespread Panic - Thin Air tab

    riff one
E-------------------------------------------|
B-------------------------------------------|
G-----0-22----0-2----0-22----2--------------|
D---2-------2------2-------3----------------|
A--------------------------------2----------|
E----------------------------------2~~------|

   riff two
E-----------------------|-------------------|
B-----------------------|-------------------|
G-----0-5-4-------0--7--|----3----5---------|
D--3-----------3--------|----3----5---------|
A-----------------------|-------------------|
E-----------------------|-------------------|
                                     (piano and rest of instruments come in)


        *sounds best on an electric guitar*

Order:

(guitar one)- Riff one x 2
(guitar two)- Riff two x 1 (during second part of riff one)


Listen to song for timing and Feel free to make any changes and/or add to song.

       Enjoy!!!
Tap to rate this tab
# A B C D E F G H I J K L M N O P Q R S T U V W X Y Z