Guitaretab - guitar tabs
Song name
# A B C D E F G H I J K L M N O P Q R S T U V W X Y Z

Widespread Panic - Walkin tab

Opening theme and theme throughout, we'll call it Theme 1.
|--------------------------------------------|
|--------------------------------------------|
|.---2-2--2---2----2----2---2-2--2--2-2-----.|
|.--0------3^4------------------------------.|
|---------------4^5--3^4--2----2----------0--|
|----------------------------------2----0----|

Verse 1:
D         G  (Theme 1)
Walkin' - for your love (x4)
A                          D
   I'm only going where my eyes are going
A                          D
   I'm only going where my toes are pointed
A                        D
   I just bought me this new pair of big shoes
A                          D
   I'm only going if I can walk there with you

Verse 2:
Shinin' - for your love (x4)
I'm afraid to open my eyes
I'm even afraid to look at you
Right here - I'm gonna open my eyes
I'm gonna move with you

Now comes the shuffle part that I believe they used to call
'Boogie in Your Nose' (is that right Dave?)
|-------------------------------------|
|-------------------------------------|
|.---2-2-2-2-2-2-2-2-2-2-2-2-2-2-2-2--|
|.------------------------------------|
|---0-2-4-2-0-2-4-2-0-2-4-2-0-2-4-0---|
|-------------------------------------|
[ Tab from: http://www.guitaretab.com/w/widespread-panic/188036.html ]
|---------------------------------------|
|---------------------------------------|
|---2-2-2-2-2-2-2-2-2-2-2-2-2-2-2-2-2--.|
|--------------------------------------.|
|--3-5-3-0-3-5-3-0-3-5-3-0-3-5-3-4-2----|
|---------------------------------------|

The pause occurs at the end of this part (2nd time through)

  D(strumming)C     Am7 G   C
|--2-----------0--0--0---3---0-----------|
|--3-----------1--1--1---0---1-----------|
|--2-----------0--0--0---0---0--0-2^1----|x4
|--0-----------2--2--2---0---2--------0--|
|--------------3--3--0---2---3-----------|
|------------------------3---------------|


|---------------------------------------|
|---------3^1-0-0-2-2-0-2-2-0-2-2-------|
|--0-2^1-0------0-2-2-0-2-2-0-2-2-------|
|---------------0-2-2-0-2-2-0-2-2-------|x3
|---------------------------------------|
|---------------------------------------|

|-------------|
|--2--4--5-6--|
|--2--4--5-6--|
|--2--4--5-6--|
|-------------|
|-------------|

back to Theme 1

Verse 3:
Disappearin' - for your love (x4)
We're only going in this closet here
I'm only going if the doorknob turns
I'm only going if the light goes on
I'm only going if I can boogie with you

shuffle part again

end on:
|------------|------|
|--2--4--5-6-|--7---|
|--2--4--5-6-|--7---|
|--2--4--5-6-|--7---|
|------------|------|
|------------|------|

Related for Walkin tab
Walkin chords by Widespread Panic