Song name
# A B C D E F G H I J K L M N O P Q R S T U V W X Y Z

Widespread Panic - E On A G tab

  C        A           Mike's Riff
|--------|--------|    |--3-2----------|----------------2-3-5--|
|--3-----|--1-----|    |------3--------|--------0-1-3-5--------|
|--0-----|--0-----|    |--------4-0----|--0-2-4----------------|
|--2-----|--2-----|    |------------2--|-----------------------|
|--3-----|--0-----|    |---------------|-----------------------|
|--3-----|--------|    |---------------|-----------------------|

Transition is A->G, some variation on those chords

Fast Part, First time through:
|----------|----------|----------|----------|--3-------|--3-------|
|--2---0---|--3-------|--2---0---|--3-------|--3-------|--3-------|
|--0---0---|--0-------|--0---0---|--0-------|--0-------|--0-------|
|--2---2---|--2-------|--2---2---|--2-------|--0-------|--0-------|
|----------|----------|----------|----------|--2-------|--2-------|
|----------|----------|----------|----------|--3-------|--3-------|

Fast Part, Second time through (slightly different)
|----------|----------|----------|----------|----------|----------|
|--2----3--|--0-------|--2----3--|--0-------|--2----3--|--0-------|
|--0----0--|--0-------|--0----0--|--0-------|--0----0--|--0-------|
|--2----2--|--2-------|--2----2--|--2-------|--2----2--|--2-------|
|----------|----------|----------|----------|----------|----------|
|----------|----------|----------|----------|----------|----------|

|--3-------|--3-------|
|--3-------|--3-------|
|--0-------|--0-------|
|--0-------|--0-------|
|--2-------|--2-------|
|--3-------|--3-------|
   bassline here is G, F#, C, IIRC
Tap to rate this tab
# A B C D E F G H I J K L M N O P Q R S T U V W X Y Z