Song name
# A B C D E F G H I J K L M N O P Q R S T U V W X Y Z

Widespread Panic - Entering A Black Hole Backwards chords

Highlighted       Show chord diagrams
Basically a Dave-driven instrumental, this little ditty
is typically played as in introduction to Chilly Water.
It was originally known as the Chilly Water Intro. jam to
most folks.  Some mistake it for the rare Astronomy Domine
Jam, but these two songs are very different.  The tune was
named by fellow Spreadnetter Leon Leathers, and was chosen
by Dave Schools himself after looking through a list of
names submitted by Spreadnetters.

Most chords are strummed with a triplet feel.  I used the
word chocolate (mmmm... chocolate) and slash marks to show
how the triplets match up with the beats of each measure.

   /                /             /                 /
   choc-o-late choc-o-late choc-o-late choc-o-late  1-e-&-a
|--7----7-7----7----7-7----7----7-7----7----7-7-----7---5--|
|--9----9-9----9----9-9----9----9-9----9----9-9-----9---7--|
|.-9----9-9----9----9-9----9----9-9----9----9-9-----9---7--|
|.-9----9-9----9----9-9----9----9-9----9----9-9-----9---7--|
|--7----7-7----7----7-7----7----7-7----7----7-7-----7---5--|
|----------------------------------------------------------|
   E           E           E           E            E   D

   /                /             /                 /
   choc-o-late choc-o-late choc-o-late choc-o-late  1-e-&-a
|--7-/--7-7----7----7-7----7----7-7----7----7-7-----8------|
|--7-/--9-9----9----9-9----9----9-9----9----9-9-----10-----|
|--7-/--9-9----9----9-9----9----9-9----9----9-9-----10----.|
|--7-/--9-9----9----9-9----9----9-9----9----9-9-----10----.|
|--5-/--7-7----7----7-7----7----7-7----7----7-7-----8------|
|----------------------------------------------------------|
   D    E      E           E           E            F

   /                /      &  /    /
   choc-o-late choc-o-late
|--14--14-14---14-----14---13--------|
|--16--16-16---16-----16---15--------|
|.-16--16-16---16-----16---15-------.|
|.-16--16-16---16-----16---15-------.|
|--14--14-14---14-----14---13--------|
|------------------------------------|
   B           B           Bb

  /   /   /   /    /   /   /   /
|-14--14--13--13-|-12--12--11--11-|
|-16--16--15--15-|-14--14--13--13-|
|-16--16--15--15-|-14--14--13--13-|
|-16--16--15--15-|-14--14--13--13-|
|-14--14--13--13-|-12--12--11--11-|
|----------------|----------------|
  B   B   Bb  Bb   A   A   Ab  Ab

Repeat from the top

Final time to drop into Chilly:
   /                /      &  /  /
   choc-o-late choc-o-late
|--14--14-14---14-----14---13------|
|--16--16-16---16-----16---15------|
|.-16--16-16---16-----16---15-----.|
|.-16--16-16---16-----16---15-----.|
|--14--14-14---14-----14---13------|
|----------------------------------|
   B           B           Bb

  /   /   /   /    /   /   /   /
|-14--14--13--12-|-11--10--9---8--|
|-16--16--15--14-|-13--12--11--10-|
|-16--16--15--14-|-13--12--11--10-|
|-16--16--15--14-|-13--12--11--10-|
|-14--14--13--12-|-11--10--9---8--|
|----------------|----------------|
  B   B   Bb  A    Ab  G   F#  F

Tap to rate this tab
# A B C D E F G H I J K L M N O P Q R S T U V W X Y Z