Guitaretab - guitar tabs
Song name
# A B C D E F G H I J K L M N O P Q R S T U V W X Y Z

Widespread Panic - Waiting For The Wind To Blow Down The Tree In My Backyard tab

|------------------------------------|
|------------------------------------|
|.----4---4---4---4---4---4---4---4--|
|.--6---6---4---4--------------------|
|-------------------7---7------------|
|---------------------------7---7----|
[ Tab from: http://www.guitaretab.com/w/widespread-panic/191898.html ]
|---------------------0------|
|----------------------------|
|----4---4---4---4------0---.|
|--------------------2---2--.|
|------4---2---2----2--------|
|--7---------------0---------|

|-----------------------0---------|
|---------1--0------------0---0---|
|.--------------0-----------0----.|
|.------2-------------2----------.|
|-----2-------------2-------------|
|---3-------------0---------------|


That's all I got so far.....

Related for Waiting For The Wind To Blow Down The Tree In My Backyard tab