Song name
# A B C D E F G H I J K L M N O P Q R S T U V W X Y Z

Widespread Panic - Airplane tab

-------------------------------------------------------------------------------
                             AIRPLANE - WIDESPREAD PANIC
-------------------------------------------------------------------------------
Tabbed by: Rob Bugg
E-mail: robertwbugg@yahoo.com

Tuning: Standard


Intro/Verse/Outro 
e|---------------------------------|
B|---------------------------------|
G|---------0---------0-----0---2---|
D|---3-------3---------3-----3---3-| (repeated)
A|-----0---------0-1-----3---------|
E|-1-----3-----3-------------------|

Chorus
e|------------------------------|
B|----------1--1----------------|
G|----5-----0--0-----5----------|
D|-3--5--5--2--3--3--5--5--6--5-|
A|-3--3--5--3--3--3--3--5--6--5-|
E|-1-----3--------1-----3--4--3-|

Verse (See above)

Chorus
e|---------------------------------------|
B|----------1--1-------------------------|
G|----5-----0--0-----5-------------------|
D|-3--5--5--2--3--3--5--5--6--5--3--5--6-|
A|-3--3--5--3--3--3--3--5--6--5--3--5--6-|
E|-1-----3--------1-----3--4--3--1--3--4-|


Chords during Solo

e|------|                  e|-------3-|
B|------|                  B|-------3-|
G|------|                  G|-------4-|
D|-8--6-| then a walk down D|-8--6--5-|
A|-8--6-| to the chorus    A|-8--6--5-|
E|-6--4-|                  E|-6--4--3-|

Chorus after Solo

e|-3--3--3--1-|                        e|---|
B|-3--3--3--1-|                        B|-1-|
G|-4--4--4--2-|                        G|-0-|
D|-5--3--5--3-| (repeated) and ends on D|-3-|
A|-5--5--5--3-|                        A|-3-|
E|-3--3--3--1-|                        E|---|

Outro (See above)

Enjoy!

************************************

| /   slide up
| \   slide down
| h   hammer-on
| p   pull-off
| ~   vibrato
| +   harmonic
| x   Mute note
| b   Bend
| pb  Pre-bend
| br  Bend release
| pbr Pre-bend release
| brb Bend release bend

************************************
Tap to rate this tab
 
# A B C D E F G H I J K L M N O P Q R S T U V W X Y Z