Song name
# A B C D E F G H I J K L M N O P Q R S T U V W X Y Z

Widespread Panic - Airplane tab

Band: Widespread Panic
Song: Airplane
Tabbed by: Rob Bugg

The other tab on here is just the intro...plus its wrong. Learned most of it by ear and 
watched this live version (http://www.youtube.com/watch?v=_t2g_uAj8Vk) for some guidance 
while tabbing parts of the song. Figured I'd share. Enjoy! (DOES NOT INCLUDE SOLO)

Standard Tuning

Intro/Verse/Outro:

e|---------------------------------|
B|---------------------------------|
G|---------0---------0-----0---2---|
D|---3-------3---------3-----3---3-|
A|-----0---------0-1-----3---------|
E|-1-----3-----3-------------------|

Chorus 1:

"Well I've got a feelin'"

e|----------------|
B|-----------1--1-|
G|----5------0--0-|
D|-3--5--55--2--3-|
A|-3--3--55--3--0-|
E|-1-----33-------|

"That I should be leavin' ahh"

e|----------------|
B|----------------|
G|----5-----------|
D|-3--5--55--6--5-|
A|-3--3--55--6--5-|
E|-1-----33--4--3-|

Chorus 2:

"Well I've got a feelin'"

e|----------------|
B|-----------1--1-|
G|----5------0--0-|
D|-3--5--55--2--3-|
A|-3--3--55--3--0-|
E|-1-----33-------|

"That I should be leavin' ahh"

e|-------------------------|
B|-------------------------|
G|----5--------------------|
D|-3--5--55--6--5--3--5--6-|
A|-3--3--55--6--5--3--5--6-|
E|-1-----33--4--3--1--3--4-|

Then they go straight to solo, rhythm plays this throughout solo:

e|---|                  e|---|
B|---|                  B|---|
G|---|                  G|---|
D|-8-| for 3 measures & D|-6-| for 1 measure (on an 8-count)
A|-8-|                  A|-6-|
E|-6-|                  E|-4-|

End of solo:

e|-----3|
B|-----3|
G|-----4|
D|-8-6-5|
A|-8-6-5|
E|-6-4-3|

Ending chorus:

e|-3--3--3--1--|               e|---|
B|-3--3--3--1--|               B|-1-|
G|-4--4--4--2--|               G|-0-|
D|-5--3--5--3--| x4 and end on D|-3-|
A|-5--5--5--3--|               A|-0-|
E|-3--3--3--1--|               E|---|

Outro: (See Above)

Just listen to the song for strumming pattern, it's pretty simple. Hope this helped!

Thanks, Rob
Tap to rate this tab
# A B C D E F G H I J K L M N O P Q R S T U V W X Y Z