Song name
# A B C D E F G H I J K L M N O P Q R S T U V W X Y Z

Widespread Panic - Airplane chords

Highlighted       Show chord diagrams
|------------------|-----------------|
|------------------|-----------------|
|----------0-------|---0-----0---2---|
|----3-------0-----|-----3---------3-|
|------3---------0-|-1-----3---3-----|
|--1-----3-----3---|-----------------|
   F     G           Bb    C


|-----------------|--------------------|
|-----------------|--------------------|
|-----0------0----|-----0--------2-----|
|--3-------3------|---3---3----3---3---|
|----0---------0--|--1-------/3--------|
|--1-------3------|--------------------|
   F       G         Bb       C

Verse 1:
F   G        Bb     C              F        G  Bb  C
    Sittin' around, waiting for an airplane
F       G           Bb       C       F    G  Bb  C
  Don't know how to fly, but that's okay
F   G        Bb     C           F      G  Bb  C
    Got me a pilot, she's going my way
F    G         Bb        C         F     G  Bb  C
  If she's got wings, if she's got wings

Verse 2:
Sittin' around, waiting for the mailman
I don't how he could be so slow
My good friend said you wrote me a letter
Must have been a year ago

Chorus:
F  C  G                           C  F
         Well, I've got a feeling
F  C  G                           G#  G
         That I should be leaving out

Verse 3:
Sittin' around, watching the rainfall
I don't know how it could rain so long
They say the ocean, she is a woman
Who waits for her man to come home

(Chorus) ->  F  G  G#

Solo:

Bb  /   D#  D#  /   Bb


G#  G#   Bb     /     D#  D#


Bb  -->  G#

G                C
Well, I've got a feeling   
G                F               (3x)
That I should be leaving out

G                C
Well, I've got a feeling
G                F
That I should be leaving

Verse 1 repeated:
Sittin' around, waiting for an airplane
Don't know how to fly, but that's okay
I got me a pilot, she's going my way
If she's got wings, if she's got wings (x3)
Tap to rate this tab
# A B C D E F G H I J K L M N O P Q R S T U V W X Y Z