Song name
# A B C D E F G H I J K L M N O P Q R S T U V W X Y Z

Widespread Panic - Airplane tab

http://www.widespreadpanic.com/
----------------------------------------------------------------------------
			     AIRPLANE - Widespread Panic
----------------------------------------------------------------------------
Tabbed by: jett

Tuning: standard

i think its right, it sounds good on accoustic

e|--------------------------------------------------------------------------
B|--------------------------------------------------------------------------
G|----------0-------------0----------0-------0------------------------------
D|----3----------------------3------------3-------2-------------------------
A|------0-----------0--1---------3------------------------------------------
E|--1------3------3---------------------------------------------------------
Tap to rate this tab
# A B C D E F G H I J K L M N O P Q R S T U V W X Y Z