Guitaretab - guitar tabs
Song name
# A B C D E F G H I J K L M N O P Q R S T U V W X Y Z

Widowmaker - Gone Bad tab

Date: Wed, 21 Jun 95 13:22:16 -0400
From: "Michael Zalot[mav]" 
Subject: TAB: "Gone Bad" by Widowmaker


"Gone Bad" by Widowmaker 
words and music by Dee Snider and Bernie Torme
transcription by Mike C. Zalot 



Intro Pattern

 B5              D/B
|------------------|------------------|
|----------------7-|(7)---------------|
|/4-44-/4-44--4--7-|(7)---------------|
|/4-44-/4-44--4--7-|(7)---------------|
|/2-22-/2-22--2----|------------------|
|----------------7-|(7)---------------|
  ^     ^     ^

Intro/Chorus Pattern

 B5        sl.sl.
|------------------|-------------------|
|------------------|-------------------|
|4---4----4/7-\4---|4---4-----4/7-\4---|
|4---4----4/7-\4---|4---4-----4/7-\4---|
|2---2-0--2/5-\2-0-|2---2-0---2/5-\2-0-|
|------------------|-------------------|

 E                  B5
|------------------|-------------------|
|------------------|-------------------|
|------------------|----4-4-------4----|
|------------------|----4-4-------4----|
|2-2--4-2--5-2--4-2|----2-2---0---2----|
|0-0--0-0--0-0--0-0|----------------0-2|

 G  D/F#  E   D    C#m  B   A   G#5
|-----------------|-------------------|
|-------------3---|-------------------|
|--0--2-------2---|-----4---2---------|
|-0--0----2---0---|-----4---2---------|
|---------2-------|4^^^-2---0---------|
|3--2-----0-------|-------------4^^^--|

 E    F#m   E  F#m B5                 
|-----------------|-------------------|
|-----------------|-------------------|
|-----------------|/4-44-/4-44-/4-44--|
|2----4--44-2---4-|/4-44-/4-44-/4-44--|
|2----4--44-2---4-|/2-22-/2-22-/2-22--|
|0----2--22-0---2-|-------------------|
                    ^     ^     ^


Verse Pattern

 B              
|-----------------|-------------------|
|-----------------|-------------------|
|4----------------|4------------------|
|4----------------|4------------------|
|2----------------|2------------------|
|-----------------|-------------------|

 E                 B
|-----------------|-------------------|
|-----------------|-------------------|
|-----------------|4---------------4--|
|-----------------|4---------------4--|
|2-2-4-2-5-2-4-2--|2---------------2--|
|0-0-0-0-0-0-0-0--|-------------------|


Pre-Chorus Pattern

 A                 B
|-----------------|-------------------|
|-----------------|-------------------|
|2-2-2-2-2-2-2-2--|-4-4-4-4-4-4-4-4---|
|2-2-2-2-2-2-2-2--|-4-4-4-4-4-4-4-4---|
|0-0-0-0-0-0-0-0--|-2-2-2-2-2-2-2-2---|
|-----------------|-------------------|

Palm Muting---------------------------|
 

A                 B  Bsus4  B
|-----------------|-------------------|
|-----------------|-----5-5-4---------|
|2-2-2-2-2-2-2-2--|-4---4-4-4---------|
|2-2-2-2-2-2-2-2--|-4---4-4-4---------|
|0-0-0-0-0-0-0-0--|-2---2-2-2---------|
|-----------------|-------------------|

Palm Muting----------| 


 B
|-----------------|-------------------|
|-----------------|-------------------|
|4----------------|4------------------|
|4----------------|4------------------|
|2----------------|2------------------|
|-----------------|-------------------|


 F#                          A    E
|-----------------|-------------------|
|-----------------|-------------------|
|-----------------|----------2-2------|
|4-4-4-4-4-4-4-4--|----------2-2--2-2-|
|4-4-4-4-4-4-4-4--|----------0-0--2-2-|
|2-2-2-2-2-2-2-2--|---------------0-0-|

Palm Muting-------|

So you thought I was going to be
Someone more like you, someone less like me
So you watched every step I take
Tried to second guess every move I make

Tell me what did I say
Won't you tell me what did I do
To get you to hate me
Like you do

You've gone bad, the preacher told me
You've gone bad, I heard him say
How would he know anyway

So bad, different from the rest
So I walk alone why are you so obsessed
[ Tab from: http://www.guitaretab.com/w/widowmaker/20843.html ]