Song name
# A B C D E F G H I J K L M N O P Q R S T U V W X Y Z

Widowspeak - Harsh Realm chords

Highlighted       Show chord diagrams
Intro

G            Em            G            Em            G            Em


2nd Guitar

e|--------------------------------------|
B|--------------------------------------|
G|-14b16--14b16--14b16--12~-------------|
D|--------------------------------------|
A|--------------------------------------|
E|--------------------------------------|


G       Em   G           Em
Last night I thought of you
G        Em     G        Em
Years ago, when bodies grew
   G       Em
An empty home
  G        Em
A vacant Hell
G       Em        G        Em
I knew you in the harsh realm


C   Em        Am          C
I    thought about how it was
C   Em        Am          C
I    thought about you because
  Am   Em       Am        Em
I always think about you
  Am   Em       Am        Em
I always think about you


G            Em            G            Em            G            Em 


2nd Guitar

e|--3---------0-------------------------|---3----------0---------------------|
B|----0-----5---5-----------------------|-----0------5---5-------------------|
G|------3/4----------14b16--------------|--------3/4----------14b16----------|
D|--------------------------------------|------------------------------------|
A|--------------------------------------|------------------------------------|
E|--------------------------------------|------------------------------------|

e|--3---------0---3---5---5b7-----------|---3----------0---------------------|
B|----0-----5---5---5---5---------------|-----0------5---5-------------------|
G|------3/4-----------------------------|--------3/4----------14b16----------|
D|--------------------------------------|------------------------------------|
A|--------------------------------------|------------------------------------|
E|--------------------------------------|------------------------------------|


  Am   Em       Am        Em
I always think about you
  Am   Em       Am        Em
I always think about you


G            Em            G            Em            G            Em


   G       Em
An empty home
  G        Em
A vacant Hell
G       Em        G        Em
I knew you in the harsh realm
Tap to rate this tab
# A B C D E F G H I J K L M N O P Q R S T U V W X Y Z