Wig Wam - Do You Wanna Taste It tab

Wig wam - Do you wanna taste it

-------------------------------------------------------------------------------
			     Do you wanna taste it - wig wam
-------------------------------------------------------------------------------
Tabbed by:
Email:

Tuning:standard

e|----------------------------------------------------------------|
B|----------------------------------------------------5-----------|
G|--------2----4b4br2--------2-2-------2--4b4br2--4s6---6s4-2-----|
D|---2-4----4----------2-3-4------2--4-------------------------4--|
A|----------------------------------------------------------------|
E|----------------------------------------------------------------|

e|--------------------------------------|
B|--------------------------------------|
G|-------2---4b4br2-------2-2-----------|
D|--2--4---4---------2-3-4----2-2ph3ph--|
A|--------------------------------------|
E|--------------------------------------|




************************************

| /   slide up
| \   slide down
| h   hammer-on
| ph   pinch harmonic
| ~   vibrato
| +   harmonic
| x   Mute note
| b   Bend
| pb  Pre-bend
| br  Bend release
| pbr Pre-bend release
| brb Bend release bend

************************************
Tap to rate this tab
 
# A B C D E F G H I J K L M N O P Q R S T U V W X Y Z