Guitaretab - guitar tabs
Song name
# A B C D E F G H I J K L M N O P Q R S T U V W X Y Z

Wig Wam - Rock My Ride tab

YOU MUST HAVE LISTENED TO THE SONG BEFORE YOU PLAY IT

                 R O C K  M Y  R I D E
                 ---------------------
                  ALBUM:WIGWAMANIA

WORDS AND MUSIC:TROND"TEENY"HOLTER

Originally Tabbed by Eriend John, 'enhanced' by Beanboy



/ = slide down

intro:
E|-----------8-----------7-----------8-----------|
B|-------8-----------8-----------8---------------|
G|---9-----------9------------9------------7/----|
D|-----------------------------------------7/----|
A|-----------------------------------------------|
E|-----------------------------------------------|


verse:                                                                            
E|-------------------------------------------------------|
B|-------------------------------------------------------|
G|--------5----------------------------------------------|3x
D|--2--5--5--5--7-5-7-5----------------------------------|
A|--2--5--3--5--7-5-7-5----------------------------------|
E|--0--3-----3--5---5------------------------------------|


E|-------------------------------------------------------|
B|-------------------------------------------------------|
G|-------------------------------------------------------|1x
D|--2--5--7--5--7--9-------------------------------------|
A|--2--5--7--5--7--9-------------------------------------|
E|--0--3--5--3--5--7-------------------------------------|



chorus:
E|--------------------------------------------------------------------|
B|--------------------------------------------------------------------|
G|---5-5-5-5-5-5-5-5-7-7-7-7-7-7-7-7-------------5-x------------------|
D|---5-5-5-5-5-5-5-5-7-7-7-7-7-7-7-7--5- 2-2--2--5-x--5-5-------------|
A|---3-3-3-3-3-3-3-3-5-5-5-5-5-5-5-5--5--2-2--2--3-x--5-5-------------|
E|------------------------------------3--0-0--0-------3-3-------------|

E|----------------------------------------------------------------------|
B|----------------------------------------------------------------------|
G|---5-5-5-5-5-5-5-5-7-7-7-7-7-7-7-7---------12----12-------12----12----|
D|---5-5-5-5-5-5-5-5-7-7-7-7-7-7-7-7--14- 14-12-14-12-14-14-12-14-12-14-|2X
A|---3-3-3-3-3-3-3-3-5-5-5-5-5-5-5-5--14--14----14----14-14----14----14-|
E|------------------------------------12--------------------------------|


verse 2 (as above)

chorus 2

E|--------------------------------------------------------------------|
B|--------------------------------------------------------------------|
G|---5-5-5-5-5-5-5-5-7-7-7-7-7-7-7-7-------------5-x------------------|
D|---5-5-5-5-5-5-5-5-7-7-7-7-7-7-7-7--5- 2-2--2--5-x--5-5-------------|
A|---3-3-3-3-3-3-3-3-5-5-5-5-5-5-5-5--5--2-2--2--3-x--5-5-------------|
E|------------------------------------3--0-0--0-------3-3-------------|

E|----------------------------------------------------------------------|
B|----------------------------------------------------------------------|
G|---5-5-5-5-5-5-5-5-7-7-7-7-7-7-7-7---------12----12-------12----12----|
D|---5-5-5-5-5-5-5-5-7-7-7-7-7-7-7-7--14- 14-12-14-12-14-14-12-14-12-14-|
A|---3-3-3-3-3-3-3-3-5-5-5-5-5-5-5-5--14--14----14----14-14----14----14-|
E|------------------------------------12--------------------------------|
[ Tab from: http://www.guitaretab.com/w/wig-wam/70266.html ]
E|--------------------------------------------------------------------|
B|--------------------------------------------------------------------|
G|---5-5-5-5-5-5-5-5-7-7-7-7-7-7-7-7-------------5-x------------------|
D|---5-5-5-5-5-5-5-5-7-7-7-7-7-7-7-7--5- 2-2--2--5-x--5-5-------------|
A|---3-3-3-3-3-3-3-3-5-5-5-5-5-5-5-5--5--2-2--2--3-x--5-5-------------|
E|------------------------------------3--0-0--0-------3-3-------------|

E|----------------------------------------------------------------------|
B|----------------------------------------------------------------------|
G|---5-5-5-5-5-5-5-5-7-7-7-7-7-7-7-7--4-4-4-4-4-4-4-4-4-4-4-4-4-4-4-4---|
D|---5-5-5-5-5-5-5-5-7-7-7-7-7-7-7-7--4-4-4-4-4-4-4-4-4-4-4-4-4-4-4-4---|
A|---3-3-3-3-3-3-3-3-5-5-5-5-5-5-5-5--2-2-2-2-2-2-2-2-2-2-2-2-2-2-2-2---|
E|----------------------------------------------------------------------|


<>

e|-------------------------------|
b|-------------------------------|
g|-------------------------------|
d|--------------4-5-4-7-5-4------|
a|------2-----3-------------5----|
e|--3-5---3-0--------------------|


SOLO
E|----------------------------------------------------------------------|
B|-------12-10-12----------13-12-13----------12-10-12-------------------|
G|--9-12----------12--9-12----------14--9-12----------12--11-12-14------|
D|----------------------------------------------------------------12----|2x
A|----------------------------------------------------------------------|
E|----------------------------------------------------------------------|

Tapping Solo:

don't know :(

gtr underneath tapping solo:

E|---------------------------------------------------------------------|
B|---------------------------------------------------------------------|
G|-------------------------------7-x-x-7-x-x-7-------------------------|
D|-9-x-x-9-x-x-9--5-x-x-5-x-x-5--5-x-x-5-x-x-5--7-x-x-7-x-x-7----------| 2x
A|-7-x-x-7-x-x-7--3-x-x-3-x-x-3-----------------5-x-x-5-x-x-5----------|
E|-0-0-0-0-0-0-0-------------------------------------------------------|

verse riff x3

chorus riff

E|--------------------------------------------------------------------|
B|--------------------------------------------------------------------|
G|---5-5-5-5-5-5-5-5-7-7-7-7-7-7-7-7-------------5-x------------------|
D|---5-5-5-5-5-5-5-5-7-7-7-7-7-7-7-7--5- 2-2--2--5-x--5-5-------------|
A|---3-3-3-3-3-3-3-3-5-5-5-5-5-5-5-5--5--2-2--2--3-x--5-5-------------|
E|------------------------------------3--0-0--0-------3-3-------------|

E|----------------------------------------------------------------------|
B|----------------------------------------------------------------------|
G|---5-5-5-5-5-5-5-5-7-7-7-7-7-7-7-7---------12----12-------12----12----|
D|---5-5-5-5-5-5-5-5-7-7-7-7-7-7-7-7--14- 14-12-14-12-14-14-12-14-12-14-|
A|---3-3-3-3-3-3-3-3-5-5-5-5-5-5-5-5--14--14----14----14-14----14----14-|
E|------------------------------------12--------------------------------|

E|--------------------------------------------------------------------|
B|--------------------------------------------------------------------|
G|---5-5-5-5-5-5-5-5-7-7-7-7-7-7-7-7-------------5-x------------------|
D|---5-5-5-5-5-5-5-5-7-7-7-7-7-7-7-7--5- 2-2--2--5-x--5-5-------------|
A|---3-3-3-3-3-3-3-3-5-5-5-5-5-5-5-5--5--2-2--2--3-x--5-5-------------|
E|------------------------------------3--0-0--0-------3-3-------------|

verse riff x2




Related for Rock My Ride tab