Song name
# A B C D E F G H I J K L M N O P Q R S T U V W X Y Z

Wig Wam - Slave To Your Love tab

                           wig wam
                           -------
 v=vibrate            slave to your love
                       by Trond Holter

intro:
e|------------------------------------------------------|
b|-----------7-9-11-9v-9v-7-9-11-9-7-----------7-9-11-9v|
g|-9v-9v-7-9-------------------------9v-9v-7-9----------|
d|------------------------------------------------------|
a|------------------------------------------------------|
e|------------------------------------------------------|

e|------------------------------------------------------|
b|-----------7-9-11-9v-9v-7-9-11-9-7--------------------|
g|-9v-9v-7-9-------------------------9v-9v-7v-4v-9v-----|
d|------------------------------------------------------|
a|------------------------------------------------------|
e|------------------------------------------------------|
Tap to rate this tab
 
# A B C D E F G H I J K L M N O P Q R S T U V W X Y Z