Song name
# A B C D E F G H I J K L M N O P Q R S T U V W X Y Z

Wilbasound - Rewrite My Life tab

Rewrite My Life guitar tab

Standard Tuning

this riff is really cool. its before the verses and at the end
e--------------------------|
B--------------------------|
G-7642464444461111222224---|
D--------------------------|
A--------------------------|
E--------------------------|(sorry for the crudeness)

verse (after the bass part goes)
e--------------------------|
B--------------------------|
G----------77-7------------|
D-77-66-44-77-7-22-2-------|
A-77-66-44-55-5-22-2-------|
E-55-44-22------00-0-------|

i want to rewrite my life
e--------------------------|
B--------------------------|
G-444-6777-9---------------|
D-444-6777-9---------------|
A-222-4555-7---------------|
E--------------------------|
back to the first riff
and verse again

chorus (a little slower)
e--------------------------|
B--------------------------|
G-------------9999---4-7-9-|
D-77772222777777774-24-7-9-|
A-77772222777755554-22-5-7-|
E-555500005555----2-0------|

another cool riff.
e--------------------------|
B--------------------------|
G---------------777--------|
D-77777622244444777222-----|
A-77777622244444555222-----|
E-55555400022222---000-----|

prechorus
e--------------------------|
B--------------------------|
G-7-7777-9-9-9-------------|
D-7-7777-9-9-9-------------|
A-5-5555-7-7-7-------------|
E--------------------------|
i think id rather be dead

do the chorus and beginning
Tap to rate this tab
# A B C D E F G H I J K L M N O P Q R S T U V W X Y Z