Song name
# A B C D E F G H I J K L M N O P Q R S T U V W X Y Z

Wilbasound - Last Portray tab

Last Portray

Standard Tuning

beginning
e------------------------------|
B---334433--3443-------33343---|
G-44------46-----666646-----64-|
D------------------------------|
A------------------------------|
E------------------------------|

verse
e--------------------------|
B---3----------------------|
G-46-4444-8888-6666--------|
D----4444-8888-6666--------|
A----2222-6666-4444--------|
E--------------------------|

pre chorus
e--------------------------|
B--------------------------|
G-88886666---------4444----|
D-888866664444-66664444----|
A-666644444444-66662222----|
E---------2222-4444--------|
chorus
e--------------------------|
B--------------------------|
G-----666688884444---------|
D-4444666688884444---------|
A-4444444466662222---------|
E-2222---------------------|

back to beginning
then its slow with bass and piano
i do this
e--------------------------|
B---36-36-3----------------|
G-44--4--4------4444-------|
D-----------44444444-------|
A-----------44442222-------|
E-----------2222-----------|

then chorus and beginning
Tap to rate this tab
# A B C D E F G H I J K L M N O P Q R S T U V W X Y Z