Song name
# A B C D E F G H I J K L M N O P Q R S T U V W X Y Z

Wilbasound - Till The End tab

Till The End Guitar tab

Standard Tuning

drums intro

Guitar intro
e---------------------------|
B---------------------------|
G------------------------4--|
D--421---1-4-------------x--|
A-2---424-2--a few times-2--|
E---------------------------|

verse
e--------------------------|
B--------------------------|
G-11-11-11-11--9-9-7-7-----|
D---9--9--9--99-9-9-9-9----|
A--------------------------|
E--------------------------|

pre chorus "we've gotten closer now"
e--------------------------|
B--------------------------|
G-4-46644------------------|
D-x-xxxxx------------------|
A-2-24422------------------|
E--------------------------|

chorus "i wanna kiss hold you tightly" (twice)
e---------------------------|
B---------------------------|
G-4444----------------------|
D-44442222-6666444422224444-|
A-22222222-6666444422224444-|
E-----0000-4444222200002222-|

intro.

verse (this time) "living for, living for"
e--------------------------|
B--------------------------|
G--4-4-4-4-4---------------|
D--------------------------|
A-2-2-2-2-2----------------|
E--------------------------|

chorus

solo
e------------------------------|
B------------------------------|
G-411109109-4111096-9846-98911-|
D-x-x-xx-xx-x-x-xxx-xxxx-xxx-x-|
A-2-9-87-87-2-9-874-7624-767-9-|
E------------------------------|

soft part before chorus
e--------------------------|
B--------------------------|
G--------------------------|
D-2-2-2-2-1--1-4-2---------|
A--2-2-2-2-22-2-2-2--------|
E--------------------------|

chorus and intro
Tap to rate this tab
 
# A B C D E F G H I J K L M N O P Q R S T U V W X Y Z