Song name
# A B C D E F G H I J K L M N O P Q R S T U V W X Y Z

Wilbasound - What Good Is Love tab

wilbasound what good is love guitar tab

Standard Tuning

comes in after the piano
e--------------------------|
B--------------------------|
G-510-910--510-910-12------|
D-x-x-x-x--x-x-x-x--x------|
A-3-8-7-8--3-8-7-8-10------|
E--------------------------|

(first time comes in skip the first chord)
e--------------------------|
B--------------------------|
G-5-7----------------------|
D-5-7-7-3-5----------------|
A-3-5-7-3-5----------------|
E-----5-1-3----------------|

then you do the first part again
the second verse is just bass and drums

"its love thats whose to blame"
e-----------------------------------|
B-----------------------------------|
G-10910-109---10-9-7----------------|
D-10910-10910--x-x-x----------------|
A--8710--8710--8-7-5----------------|
E-----8-----8-----------------------|

What good is love? part
e--------------------------|
B--------------------------|
G-5------------------------|
D-5-3-7-5------------------|
A-3-3-7-5------------------|
E---1-5-3------------------|
(piano part for fun) i think its close enough
e-----------------------------|
B--5--5-5--5-8----------------|
G---5--5-5--5-----------------|
D-5--5----5-------------------|
A-----------------------------|
E-----------------------------|
Tap to rate this tab
 
# A B C D E F G H I J K L M N O P Q R S T U V W X Y Z