Song name
# A B C D E F G H I J K L M N O P Q R S T U V W X Y Z

Wilco - Walken tab

  G                                                        C 
E----------------------------------------------------------3---------------|
B-----3--3--3-5p3---------3--3--3-5p3-------3--3--3-5p3----5---------------|
D-3h4-4--4--4-4-------3h4-4--4--4-4-------3h4--4--4-4------5---------------|
G----------------------------------------------------------5---------------|
A----------------------------------------------------------3---------------|
E----------------------------------------------------------3---------------|
                                       I'm walking          All by myself

  
  G                                           C             Cm            
E------------------12-12/10-------------------3-------------3--------------|
B-----3--3-5-3-----14-14/12--3----------------5-------------4--------------|
D-3h4-4--4-4-4-3h4-----------4--3-3-3/2-------5-------------5--------------|
G-------------------------------5-5-5/3-------5-------------5--------------|
A---------------------------------------------3-------------3--------------|
E---------------------------------------------3-------------3--------------|
                                       I was talking   to myself     

        Bb                        A     G#           G               C
E-------1-------------------------0-----x----------------------------3-----|
B-------3-------------------------2-----1--------------3--3-5-3----3-5-----|
D-------3-------------------------2-----1----------3h4-4--4-4-4-3h4--5-----|
G-------3-------------------------2-----1----------------------------5-----|
A-------1-------------------------0-----x----------------------------3-----|
E-------1-------------------------0-----x----------------------------3-----|
  About you    What am I going to do          I was  singing

       C          G                                  C
E------3----------3-/7---7---12-12/10----------------3---------------------|
B------5----------3---8---8--14-14/14----------------5---------------------|
D------5----------4---------------------3-3-3/2------5---------------------|
G------5----------5---------------------5-5-5/3------5---------------------|
A------3----------5----------------------------------3---------------------|
E------3----------3----------------------------------3---------------------|
  This song about you                          I was thinking 

  C     Cm                      Bb                   A     G# 
E-------3-----------------------1--------------------0-----x---------------|
B-------4-----------------------3--------------------2-----1---------------|
D-------5-----------------------3--------------------2-----1---------------|
G-------5-----------------------3--------------------2-----1---------------|
A-------3-----------------------1--------------------0-----x---------------|
E-------3-----------------------1--------------------0-----x---------------|
  About singing   This song for you

      Em                        Em6              G 
E-----7-------------------------7----------------3-7-----------------------|
B-----8-------------------------8----------------3--8----------------------|
D-----9-------------------------8----------------4-------------------------|
G-----9-------------------------9----------------5-------------------------|
A-----7-------------------------7----------------5---------1---------------|
E-----7-------------------------7----------------3----0h1h3-3p1-3----------|
  The more I think about it the more I know it's true


      Em                        Em6                G 
E-----7-------------------------7------------------3------10--13b15-10-----|
B-----8-------------------------8------------------3-10b12-----------------|
D-----9-------------------------8------------------4-----------------------|
G-----9-------------------------9------------------5-----------------------|
A-----7-------------------------7------------------5-----------------------|
E-----7-------------------------7------------------3---------33-33-3333----|
  The more I think about it the more I'm sure it's you

  F                    Fm6                     D#6  
E-8--------------------8-----------------------8---------------------------|
B-10-------------------9-----------------------8---------------------------|
D-10-------------------9-----------------------8---------------------------|
G-10-------------------10----------------------8---------------------------|
A-8--------------------8-----------------------6---------------------------|
E-8--------------------8-----------------------6---------------------------|
  Honey I think you're just right       You're just right


E--------------------------------------------------------------------------|
B-5p3h5-3-3-3-3-3-3-3h5p3h5-3-3-3-3-0h1-0--5p3h5-3-3-3-3-3-3-3h5p3h5-3-3---|
D-------4-4-4-4-4-4---------4-4-4-4-0h1-0--------4-4-4-4-4-4---------4-4---|
G-----------------------------------0h1-0----------------------------------|
A--------------------------------------------------------------------------|
E--------------------------------------------------------------------------|


E--------------------------------------------------------------------------|
B------3-----------------------3-----------------------3-------------------|
D-0h3h5-5p3-5-----0h3-5-5-5p3h5-5p3h5-----0h3-5-5-5p3h5-5p3h5--------------|
G--------------------------------------------------------------------------|
A--------------------------------------------------------------------------|
E--------------------------------------------------------------------------|


        G                C              G
E-------3----------------3--------------3----7----------12-12/10-----------|
B-------3----------------5--------------3-----8b6-------14-14/12-----------|
D-------4----------------5--------------4----------------------------------|
G-------5----------------5--------------5----------------------------------|
A-------5----------------3--------------5----------------------------------|
E-------3----------------3--------------3----------------------------------|
  I was walking          Like I said by myself

        C               Cm             Bb                  A     G#
E-------3---------------3--------------1-------------------0-----x---------|
B-------5---------------4--------------3-------------------2-----1---------|
D-------5---------------5--------------3-------------------2-----1---------|
G-------5---------------5--------------3-------------------2-----1---------|
A-------3---------------3--------------1-------------------0-----x---------|
E-------3---------------3--------------1-------------------0-----x---------|
  I was talking    to myself     about you   Like I always do


      Em                        Em6              G 
E-----7-------------------------7----------------3-7-----------------------|
B-----8-------------------------8----------------3--8----------------------|
D-----9-------------------------8----------------4-------------------------|
G-----9-------------------------9----------------5-------------------------|
A-----7-------------------------7----------------5---------1---------------|
E-----7-------------------------7----------------3----0h1h3-3p1-3----------|
  The more I think about it the more I know it's true


      Em                        Em6                G 
E-----7-------------------------7------------------3-----------------------|
B-----8-------------------------8------------------3-6-8-6-6-6-8-----------|
D-----9-------------------------8------------------4--7-7-7-7--------------|
G-----9-------------------------9------------------5-----------------------|
A-----7-------------------------7------------------5-----------------------|
E-----7-------------------------7------------------3-----33-33-3333--------|
  The more I think about it the more I'm sure it's you


 F                    Fm6                     D#6  
E-8--------------------8-----------------------8---------------------------|
B-10-------------------9-----------------------8---------------------------|
D-10-------------------9-----------------------8---------------------------|
G-10-------------------10----------------------8---------------------------|
A-8--------------------8-----------------------6---------------------------|
E-8--------------------8-----------------------6---------------------------|
  Honey I think you're just right       You're just right


E---------------------------------------------/10-9-8-7--------------------|
B-------3p0-6p3h6-8-7h8p7-0---------3p0-6p3h6------------------------------|
D-0h3h4-----------------------0h3h4----------------------------------------|
G--------------------------------------------------------------------------|
A--------------------------------------------------------------------------|
E--------------------------------------------------------------------------|


E-15-13--10----13--13--13--13--13-15-------------------------------13/-----|
B--------12-------15--15--15--15--------------------12-8-636363636-13/-----|
D-------------------------------------12b10-10-10-10-----------------------|
G--------------------------------------------------------------------------|
A--------------------------------------------------------------------------|
E--------------------------------------------------------------------------|


      Em                        Em6              G 
E-----7-------------------------7----------------3-7-----------------------|
B-----8-------------------------8----------------3--8----------------------|
D-----9-------------------------8----------------4-------------------------|
G-----9-------------------------9----------------5-------------------------|
A-----7-------------------------7----------------5---------1---------------|
E-----7-------------------------7----------------3----0h1h3-3p1-3----------|
  The more I think about it the more I know it's true


      Em                        Em6                G 
E-----7-------------------------7------------------3------10--13b15-10-----|
B-----8-------------------------8------------------3-10b12-----------------|
D-----9-------------------------8------------------4-----------------------|
G-----9-------------------------9------------------5-----------------------|
A-----7-------------------------7------------------5-----------------------|
E-----7-------------------------7------------------3---------33-33-3333----|
  The more I think about it the more I'm sure it's you


  F                    Fm6                     D#6  
E-8--------------------8-----------------------8---------------------------|
B-10-------------------9-----------------------8---------------------------|
D-10-------------------9-----------------------8---------------------------|
G-10-------------------10----------------------8---------------------------|
A-8--------------------8-----------------------6---------------------------|
E-8--------------------8-----------------------6---------------------------|
  Honey I think you're just right       You're just right


E--------------------------------------------------------------------------|
B--------------------------------------------------------------------------|
D--------------------------------------------------------------------------|
G---5-7--7-5--------7-5-7-8-9----------------5-7--7-5-------7-5-7-8-9------|
A-7----------7--6-7------------------------7----------7-6-7----------------|
E-------------------------------33-33-3333---------------------------------|

 
                                                                End on D#
E----------------------------------------------------------------------6---|
B----------------------------------------------------------------------8---|
D------------------------5--5----7----4--------5--5----7----4----------8---|
G-----------------------5-5--5----5----5------5-5--5----5----5---------8---|
A-------------------5678---7--7-6--6-5--5----8---7--7-6--6-5--5--------6---|
E-33-33-33-33-3333-----------------------------------------------------6---| 
Tap to rate this tab
# A B C D E F G H I J K L M N O P Q R S T U V W X Y Z