Song name
# A B C D E F G H I J K L M N O P Q R S T U V W X Y Z

Wilco - Pieholden Suite tab

Highlighted       Show chord diagrams
Artist-Wilco
Song-Pieholden Suite
Album-Summerteeth
Writer-Jeff Tweedy
Tabbed by S. McNally


Verse 1
(D)
There's a whisper
        A
I would like to breathe
  Em
Into your ear
    D       D7
But I'm too scared
   Em
To get that close
   Gm
To you right now


Verse 2
D
There are dreams
   A
We might have shared
    Em
And I still care
    D       D7
And I still love you
Em
But you know how
Gm   Gmadd4    A
I've been   untrue


Interlude
Am-E-E7-G-F
F#m-G-Gm


Verse 3 (tempo picks up)
(D)
In the beginning
 A
We closed our eyes
    Em
Whenever we kissed
D           D7
We were surprised
   Em            Gm
To find so much inside


Instrumental
D-A-Em-D-D7
Em-Gm-Gmadd4


Outro (Main Horn part arranged for guitar)

G#m-G-F-F#m-G-Gm

D           A          Em         D          D7
-2-3-2-2----2-3-2-2----2-3-2-2----2-2-3-2-2-3-2--------|
---------3----------2----------3-----------------------|
-------------------------------------------------------|
-------------------------------------------------------|
-------------------------------------------------------|
-------------------------------------------------------|

Em       Gm  Gmadd4  D
-0-0-2-0-----6-5-----2------|
---------3------------------|
-----------3----------------|
----------------------------|
----------------------------|
----------------------------|


Note about Chords

Gmadd4
---
-3-
-3-
-5-
-3-
-3-
Tap to rate this tab
# A B C D E F G H I J K L M N O P Q R S T U V W X Y Z